Arab Strap - Who Named The Days Chords & Tabs

 

Who Named The Days Chords & Tabs

Arab Strap Chords & Tabs

Version: 1 Type: Chords 0 ratings
1 star 2 stars 3 stars 4 stars 5 stars
comments

Who Named The Days Chords

   
who named the days
arab strap
tab by: j.walker
18/9/04
MY TABS R SHIT plus the little crosshatch thing is broke on my keybroad 
so i have to write cSHARPE instead of the symbol.. now just pick through which ever
way you feel comffy with .. this is just to give you a basic guide line
 
intro
                E                       Csharpe
e:----------------7-----------0----/-------------4------0------------------------------------------
b:-------------0----------0------0-/---------0-------0----0------------------------------------------
g:----------9-------9------------/--------6----6---6-------------------------------------------------
d:--------9---------------------/-------6---------------------------------------------------------
a:----------------------------------------------------------------------------------------------
e:---(0)------------------------------------------------------------------------------------------
               Bm                       csharpe          E
e:---------2-------2----0---2---/---4------------/--------------7---------------------------------
b:------------------------------------------------------------0----------------------------------
g:------4------------------------------6--------/--roll-----9---------------------------------------
d:-----4--------4------------------------6-----/---------9-----------------------------------------
a:----------------------------------------------------------------------------------------------
e:---------------------------------------------------------------------------------------------
[ Tab from: http://www.guitartabs.cc/tabs/a/arab_strap/who_named_the_days_crd.html ]
verse    pick thourgh these chords like above then end on an Asus(?)
e:---------------------------------------------------------------0-----------------------------
b:---------------------------------------------------------0-----------------------------------
g:----------------csharpe    bm     -------------------2-------------------=-
d:--------------------------------------------------2-------------------------------------------
a:----------------------------------------------0------------------------------------------------
e:---------------------------------------------------------------------------------------------

chours (INTRO)
        who named...... the days.....       who named this messs            (BA DA DA)
e:--------------------------------------------------------------------------------------------
b:---------------------------------------------------------------------------7--9--5-------------
g:------E------///--------CSHARPE---///-----bM----/////-------ASUS-----------------------------
d:---------------------------------------------------------------------------------------------
a:----------------------------------------------------------------------------------------------
e:---------------------------------------------------------------------------------------------

MIDDLE

   SOMETIMES     WHEN     IM     WITH HIM
e:------------4-------0----------------2-------0--------------------------------------------------
b:---------0-------0--------------0---------0-----------------------------------------------------
g:------6-------6-------------4----------4---------------------------------------------------------
d:---6--------------------4----------------------------------------------------------------------
a:------------------------------------------------0-H-2--0H 2/--4--------------------------------
e:---------------------------------------------------------------------------------------------
                                             ^^^if play by urself u can add this^^^^

THIS WAS OTHER SHITTY LAZY TAB BROUGHT TO YOU BY THIS CUNT : (



Comments