Arab Strap - Screaming In The Trees Chords & Tabs

 

Screaming In The Trees Chords & Tabs

Arab Strap Chords & Tabs

Version: 1 Type: Tab 1 rating
1 star 2 stars 3 stars 4 stars 5 stars
comments

Screaming In The Trees Tab

song:screaming in the trees
album: the red thread
tab by: joseph walker
15/1/03

more tabs at "arabstrap.com".. or .co.uk

this is just the chords and an idea of how to play it
it's not in order but its all the same over again should be all there
feel free to improve it

e----------------------------------
b----------------------------------
g---0---------0------0-------------
d---5--5/7/5--7--7/9-9-------------
a---3---------5------7---0-2-3----- repeat as need
e----------------------------------
[ Tab from: http://www.guitartabs.cc/tabs/a/arab_strap/screaming_in_the_trees_tab.html ]
"screaming in the trees"
e--------------------------
b--------------------------
g---0--/-0-/-0------------------
d---9-/--7-/-5-----2-------------
a---7-/--5-/-3-----0--------------
e--------------------------

im not sure about this bit it could be either of these two

e--------------------------
b--------------------------
g-----0-----0----------------
d---5-----5------------------
a-2-----3--------------------
e--------------------------

e--------------------------
b--------------------------   this could be the outro?
g--------------------------
d-----0------0---------------
a---5------7-----------------
e-3------5-------------------

i didnt have the song handy it's all from memory so it might be a tad wrong wit the end there sorry but i think its sweet enough

"your soild gold 
i'll see u in hell"
Comments