Aqualung - Good Times Gonna Come Chords & Tabs

 

Good Times Gonna Come Chords & Tabs

Aqualung Chords & Tabs

Version: 2 Type: Tab

Good Times Gonna Come Tab

-------------------------------------------------------|
-------------------------------------------------------|
----------------------1--------------------------------|
----5-----3-----1--------------------------------------|
[ Tab from: http://www.guitartabs.cc/tabs/a/aqualung/good_times_gonna_come_tab_ver_2.html ]
------------------------------------------------------------|
----3-----3-----------------3---2---------------------------|
------3------3----5---3--------------5----------------------|
------------------------------------------------------------|
"in the end...."