Aquabats - Pizza Day Chords & Tabs

 

Pizza Day Chords & Tabs

Aquabats Chords & Tabs

Version: 4 Type: Tab

Pizza Day Tab

Artist: The Aquabats
Song: Pizza Day
Album: Myths, Legends And Other Amazing Adventures

Tabbed by: Revlin
6/3/06

In honor of Pizza day! Enjoy Aquacadets!

[ Tab from: http://www.guitartabs.cc/tabs/a/aquabats/pizza_day_tab_ver_4.html ]
Intro and Chorus
e|---------------------------------------------|-----------------------------------------|
B|---------------------------------------------|-----------------------------------------|
G|---------------------------------------------|-----------------------------------------|
D|--8888-8-88--3333-3-33--6666-6-66--88888888--|----6666-6-66--88888888--6666-6-66--6~~--|
A|--8888-8-88--3333-3-33--6666-6-66--88888888--|----6666-6-66--88888888--6666-6-66--6~~--|
E|--6666-6-66--1111-1-11--4444-4-44--66666666--|x2--4444-4-44--66666666--4444-4-44--4~~--|


Verse (Ska Upstrokes)
e|--6--1--4--3--|
B|--6--1--4--4--|
G|--7--2--5--3--|
D|--------------|
A|--------------|
E|--------------|

"Well, now I'm out of school..."
e|-------------|
B|-------------|
G|-------------|
D|-------------|
A|--8b---------|
E|-------10b---|(Repeat as many times as neccesary)

Last Chord:
e|-----|
B|-----|
G|-----|
D|--8--|
A|--8--|
E|--6--|


Comments or questions, e-mail me at SoftAsylum@gmail.com