Aquabats - Pizza Day Chords & Tabs

 

Pizza Day Chords & Tabs

Aquabats Chords & Tabs

Version: 3 Type: Tab 0 ratings
1 star 2 stars 3 stars 4 stars 5 stars
comments

Pizza Day Tab

-------------------------------------------------------------------------------
			     pizza day-aquabats
-------------------------------------------------------------------------------
www.theaquabats.com
Tabbed by:joe

Tuning:Eadbge....the chorus and verse are 100% correct
[ Tab from: http://www.guitartabs.cc/tabs/a/aquabats/pizza_day_tab_ver_3.html ]
this is the verse, same for all
e|5(5x)-----4(5x)---  5(5x)----10(4x)----------------------------------------|
B|5-(5x)----5-(5x)--- 5-(5-----10(4x)----------------------------------------|x)
G|6-(5x)----6-(5x)----6-(5x)---11(4x)----------------------------------------|
D|---------------------------------------------------------------------------|
A|---------------------------------------------------------------------------|
E|---------------------------------------------------------------------------|
CHORUS
e|---------------------------------------------------------------------------|
B|---------------------------------------------------------------------------|
G|---------------------------------------------------------------------------|
D|-------101010101010--------------------------------------------------------|
A|888888-888888-------666666-888888------------------------------------------|
E|666666--------------444444-666666------------------------------------------|
chorus continued
e|---------------------------------------------------------------------------|
B|---------------------------------------------------------------------------|
G|---------------------------------------------------------------------------|
D|---------6-----------------------------------------------------------------|
A|-888888--4-----------------------------------------------------------------|
E|-666666--------------------------------------------------------------------|


the bridge part is just some effects in the backrund or on(may not be right)


e|---------------------------------------------------------------------------|
B|---------------------------------------------------------------------------|
G|---------------------------------------------------------------------------|
D|999------------------------------------------------------------------------|
A|---------------------------------------------------------------------------|
E|---------------------------------------------------------------------------|

do that a couple of times or not and its still fine

and your done, have fun the aquabats are a great band
Comments