Aquabats - Meltdown Chords & Tabs

 

Meltdown Chords & Tabs

Aquabats Chords & Tabs

Version: 1 Type: Tab 0 ratings
1 star 2 stars 3 stars 4 stars 5 stars
comments

Meltdown Tab

   
JOchem Smaal tabs meltdown:

Am C G D Am
He had a meltdown
e-----------|
b-----------|
g---5---7---|
D-7-5-5-7-7-|
a-7-3-5-5-7-|
E-5---3---5-| couple of times
[ Tab from: http://www.guitartabs.cc/tabs/a/aquabats/meltdown_tab.html ]
other piece
Am F Am F
e-x-5-x-1-x-5-x-1--|
b-x-5-x-1-x-5-x-1--|
g-x-5-x-1-x-5-x-1--|
d-x-7-x-3-x-7-x-3--|
a-x-7-x-3-x-7-x-3--|
E-x-5-x-1-x-5-x-1--|

Am C G D Am
He had a meltdown
e-----------|
b-----------|
g---5---7---|
D-7-5-5-7-7-|
a-7-3-5-5-7-|
E-5---3---5-|

couple of times
that's enough you need to know
byebye
Comments