Aquabats - Lovers Of Loving Love Chords & Tabs

 

Lovers Of Loving Love Chords & Tabs

Aquabats Chords & Tabs

Version: 1 Type: Tab 0 ratings
1 star 2 stars 3 stars 4 stars 5 stars
comments

Lovers Of Loving Love Tab

Lovers of Loving Love
Tabbed by Tromboner66
Tromboner66@poop.com

Intro
E|------------------------------------------------|
B|-----3-----2-------3-------5--3--2--------------|
G|-------2-----2-------2--------------------------| 
D|--0-------0-----0-------0-----------------------|
A|------------------------------------------------|
E|------------------------------------------------|

3 times, then
E|------------------------------------------------|
B|-----3-----2-----3------------------------------|
G|-------2-----2----------------------------------|
D|--0------0-----0--------------------------------|
A|------------------------------------------------|
E|------------------------------------------------|

Chorus
E|------------------------------------------------|
B|------------------------------------------------|
G|------------------------------------------------|
D|--77777777-1212121212121212-44444444--22222222--|
A|--55555555-1010101010101010-22222222--00000000--|
E|------------------------------------------------|
“Funny faces in sunny places…”
4 Times

E|------------------------------------------------|
B|------------------------------------------------|
G|------------------------------------------------|
D|--6-6-6-6----2-2-2-2----6-6-6-6----2-2-2-2------|
A|--4-4-4-4----0-0-0-0----4-4-4-4----0-0-0-0------|
E|------------------------------------------------|
“Don’t talk just watch the world go by…”
 

E|------------------------------------------------|
B|-----3-----2-------3-------5--3--2--------------|
G|-------2-----2-------2--------------------------| 
D|--0-------0-----0-------0-----------------------|
A|------------------------------------------------|
E|------------------------------------------------|
I’m so happy, I’m so happy…”
7 times, then

E|------------------------------------------------|
B|-----3-----2-----3------------------------------|
G|-------2-----2----------------------------------|
D|--0------0-----0--------------------------------|
A|------------------------------------------------|
E|------------------------------------------------|
[ Tab from: http://www.guitartabs.cc/tabs/a/aquabats/lovers_of_loving_love_tab.html ]
E|------------------------------------------------|
B|------------------------------------------------|
G|------------------------------------------------|
D|--7-7-777—12-12-121212-4-4-444-2-2-222----------|
A|--5-5-555—10-10-101010-2-2-222-0-0-000----------|
E|------------------------------------------------|
2 times

E|------------------------------------------------|
B|------------------------------------------------|
G|------------------------------------------------|
D|--77777777-1212121212121212-44444444--22222222--|
A|--55555555-1010101010101010-22222222--00000000--|
E|------------------------------------------------|
2 times

E|------------------------------------------------|
B|------------------------------------------------|
G|------------------------------------------------|
D|--6-6-6-6----2-2-2-2----6-6-6-6----2-2-2-2------|
A|--4-4-4-4----0-0-0-0----4-4-4-4----0-0-0-0------|
E|------------------------------------------------|
“Don’t talk just watch the world go by…”
 

E|------------------------------------------------|
B|-----3-----2-------3-------5--3--2--------------|
G|-------2-----2-------2--------------------------| 
D|--0-------0-----0-------0-----------------------|
A|------------------------------------------------|
E|------------------------------------------------|
I’m so happy, I’m so happy…”
7 times, then
E|------------------------------------------------|
B|-----3-----2-----3------------------------------|
G|-------2-----2----------------------------------|
D|--0------0-----0--------------------------------|
A|------------------------------------------------|
E|------------------------------------------------|
“It’s real great were lovers”
E|------------------------------------------------|
B|------------------------------------------------|
G|------------------------------------------------|
D|--7-7-777—12-12-121212-4-4-444-2-2-222----------|
A|--5-5-555—10-10-101010-2-2-222-0-0-000----------|
E|------------------------------------------------|
“Lovers of loving love”
2 times

E|------------------------------------------------|
B|------------------------------------------------|
G|------------------------------------------------|
D|--77777777-1212121212121212-44444444--22222222--|
A|--55555555-1010101010101010-22222222--00000000--|
E|------------------------------------------------|
“Love it’s love…”
4 Times
Comments