Aqua - Barbie Girl Chords & Tabs

 

Barbie Girl Chords & Tabs

Aqua Chords & Tabs

Version: 2 Type: Tab

Barbie Girl Tab

Well, this is the way me and my band play it... If I get some good comments I'll add
the solo I play near the end, but otherwise I'm just putting the main stuff.

Note: Turn your gain up to 11... And rip off the knob, this is not a pop song anymore.
This is not for 11 year old girls... It's for Melodic Thrash/Death Metal bands, with a
sense of humor... And a Drop D guitar. Well, it's not the actually song, cuz there isn't
a guitar as far as I know, but this will go along good.

Intro
|----------------------------|
|----------------------------|
|----------------------------|
|9~-11~-8~-10~-9~-11~-12~-12~|
|9~-11~-8~-10~-9~-11~-12~-12~|
|9~-11~-8~-10~-9~-11~-12~-12~|

|-----------------------|
|-----------------------|
|-----------------------|
|9~-11~-8~-10~-7~-9~-11~|2x
|9~-11~-8~-10~-7~-9~-11~|
|9~-11~-8~-10~-7~-9~-11~|

Come on Barbie Let's Go Party
|----------------|
|----------------|
|----------------|
|5-5-0-0-5-5-0-0-|
|5-5-0-0-5-5-0-0-|
|5-5-0-0-5-5-0-0-|

Chorus
|----------|
|----------|
|----------|
|5-0-5-7-5-|
|5-0-5-7-5-|
|5-0-5-7-5-|

|----------------|
|----------------|
|----------------|
|5-0-5-7-7/9-7-5-|
|5-0-5-7-7/9-7-5-|
|5-0-5-7-7/9-7-5-|

|----------------|
|----------------|
|----------------|
|7-5-7-5-9-7-9-7-|
|7-5-7-5-9-7-9-7-|
|7-5-7-5-9-7-9-7-|

|----------|
|----------|
|----------|
|5-0-5-7-5-|
|5-0-5-7-5-|
|5-0-5-7-5-|

|----------------|
|----------------|
|----------------|
|5-0-5-7-7/9-7-5-|
|5-0-5-7-7/9-7-5-|
|5-0-5-7-7/9-7-5-|

|----------------------|
|----------------------|
|----------------------|
|7-7-5-7-5-9-9-9-7-9-7-|
|7-7-5-7-5-9-9-9-7-9-7-|
|7-7-5-7-5-9-9-9-7-9-7-|

Verse I

|--------------------------|
|--------------------------|
|--------------------------|
|5-5-5-7-7-7-5-7-7/9-7-5-7-|
|5-5-5-7-7-7-5-7-7/9-7-5-7-|
|5-5-5-7-7-7-5-7-7/9-7-5-7-|

|--------------------|
|--------------------|
|--------------------|
|5-5-5-5-5-5-5-7-9-7-|
|5-5-5-5-5-5-5-7-9-7-|
|5-5-5-5-5-5-5-7-9-7-|

|-----------------------|
|-----------------------|
|-----------------------|
|-----------------------|
|-----------------------|
|0-2-3-0-2-3-0-2-4-5-4-2|

|--------------------|
|--------------------|
|--------------------|
|--------------------|
|--------------------|
|0-2-3-0-2-3-2-4-2-0-|

Pre-Chorus
|-------------------------------|
|-------------------------------|
|3-5-7-3-5-7/5-3-5-7-7-9-9-7-5/3|
|-------------------------------|
|-------------------------------|
|-------------------------------|

Chorus
|----------|
|----------|
|----------|
|5-0-5-7-5-|
|5-0-5-7-5-|
|5-0-5-7-5-|

|----------------|
|----------------|
|----------------|
|5-0-5-7-7/9-7-5-|
|5-0-5-7-7/9-7-5-|
|5-0-5-7-7/9-7-5-|

|----------------|
|----------------|
|----------------|
|7-5-7-5-9-7-9-7-|
|7-5-7-5-9-7-9-7-|
|7-5-7-5-9-7-9-7-|

|----------|
|----------|
|----------|
|5-0-5-7-5-|
|5-0-5-7-5-|
|5-0-5-7-5-|

|----------------|
|----------------|
|----------------|
|5-0-5-7-7/9-7-5-|
|5-0-5-7-7/9-7-5-|
|5-0-5-7-7/9-7-5-|

|----------------------|
|----------------------|
|----------------------|
|7-7-5-7-5-9-9-9-7-9-7-|
|7-7-5-7-5-9-9-9-7-9-7-|
|7-7-5-7-5-9-9-9-7-9-7-|

Bridge 2x
|----------------|
|----------------|
|----------------|
|5-5-0-0-5-5-0-0-|
|5-5-0-0-5-5-0-0-|
|5-5-0-0-5-5-0-0-|

|----------|
|----------|
|----------|
|5-5-3-5p3-|
|----------|
|----------|
[ Tab from: http://www.guitartabs.cc/tabs/a/aqua/barbie_girl_tab_ver_2.html ]
|----------------|
|----------------|
|----------------|
|5-5-0-0-5-5-0-0-|
|5-5-0-0-5-5-0-0-|
|5-5-0-0-5-5-0-0-|

|------------|
|------------|
|------------|
|5/7\5-5/7\5-|
|------------|
|------------|

Verse II

|-------------------------|
|-------------------------|
|-------------------------|
|5-7-9-5-7-9-5-7-9-10-9-7-|
|5-7-9-5-7-9-5-7-9-10-9-7-|
|5-7-9-5-7-9-5-7-9-10-9-7-|

|--------------------------|
|--------------------------|
|--------------------------|
|7-7-9-5-7-9-7-9-7/5-5-4-5-|
|7-7-9-5-7-9-7-9-7/5-5-4-5-|
|7-7-9-5-7-9-7-9-7/5-5-4-5-|

|-------------------------|
|-------------------------|
|-------------------------|
|0-2-4-0-2-4-0-2-4~-5-4-2-|
|0-2-4-0-2-4-0-2-4~-5-4-2-|
|0-2-4-0-2-4-0-2-4~-5-4-2-|

|-------------------|
|-------------------|
|-------------------|
|2-4-6-2-4-6-4-6-4-2|
|2-4-6-2-4-6-4-6-4-2|
|2-4-6-2-4-6-4-6-4-2|

Pre-Chorus
|-------------------------------|
|-------------------------------|
|3-5-7-3-5-7/5-3-5-7-7-9-9-7-5/3|
|-------------------------------|
|-------------------------------|
|-------------------------------|

Chorus
|----------|
|----------|
|----------|
|5-0-5-7-5-|
|5-0-5-7-5-|
|5-0-5-7-5-|

|----------------|
|----------------|
|----------------|
|5-0-5-7-7/9-7-5-|
|5-0-5-7-7/9-7-5-|
|5-0-5-7-7/9-7-5-|

|----------------|
|----------------|
|----------------|
|7-5-7-5-9-7-9-7-|
|7-5-7-5-9-7-9-7-|
|7-5-7-5-9-7-9-7-|

|----------|
|----------|
|----------|
|5-0-5-7-5-|
|5-0-5-7-5-|
|5-0-5-7-5-|

|----------------|
|----------------|
|----------------|
|5-0-5-7-7/9-7-5-|
|5-0-5-7-7/9-7-5-|
|5-0-5-7-7/9-7-5-|

|----------------------|
|----------------------|
|----------------------|
|7-7-5-7-5-9-9-9-7-9-7-|
|7-7-5-7-5-9-9-9-7-9-7-|
|7-7-5-7-5-9-9-9-7-9-7-|

Bridge 2x
|----------------|
|----------------|
|----------------|
|5-5-0-0-5-5-0-0-|
|5-5-0-0-5-5-0-0-|
|5-5-0-0-5-5-0-0-|

|----------|
|----------|
|----------|
|5-5-3-5p3-|
|----------|
|----------|

|----------------|
|----------------|
|----------------|
|5-5-0-0-5-5-0-0-|
|5-5-0-0-5-5-0-0-|
|5-5-0-0-5-5-0-0-|

|------------|
|------------|
|------------|
|5/7\5-5/7\5-|
|------------|
|------------|

Chorus
|----------|
|----------|
|----------|
|5-0-5-7-5-|
|5-0-5-7-5-|
|5-0-5-7-5-|

|----------------|
|----------------|
|----------------|
|5-0-5-7-7/9-7-5-|
|5-0-5-7-7/9-7-5-|
|5-0-5-7-7/9-7-5-|

|----------------|
|----------------|
|----------------|
|7-5-7-5-9-7-9-7-|
|7-5-7-5-9-7-9-7-|
|7-5-7-5-9-7-9-7-|

|----------|
|----------|
|----------|
|5-0-5-7-5-|
|5-0-5-7-5-|
|5-0-5-7-5-|

|----------------|
|----------------|
|----------------|
|5-0-5-7-7/9-7-5-|
|5-0-5-7-7/9-7-5-|
|5-0-5-7-7/9-7-5-|

|----------------------|
|----------------------|
|----------------------|
|7-7-5-7-5-9-9-9-7-9-7-|
|7-7-5-7-5-9-9-9-7-9-7-|
|7-7-5-7-5-9-9-9-7-9-7-|

Bridge 2x
|----------------|
|----------------|
|----------------|
|5-5-0-0-5-5-0-0-|
|5-5-0-0-5-5-0-0-|
|5-5-0-0-5-5-0-0-|

|----------|
|----------|
|----------|
|5-5-3-5p3-|
|----------|
|----------|

|----------------|
|----------------|
|----------------|
|5-5-0-0-5-5-0-0-|
|5-5-0-0-5-5-0-0-|
|5-5-0-0-5-5-0-0-|

|------------|
|------------|
|------------|
|5/7\5-5/7\5-|
|------------|
|------------|

Outro

|-----------------------------|
|-----------------------------|
|-----------------------------|
|9~-11~-11~-13~-9~-11~-13~-15~|
|9~-11~-11~-13~-9~-11~-13~-15~|
|9~-11~-11~-13~-9~-11~-13~-15~|