Apulanta - Vasten Mun Kasvojani Chords & Tabs

 

Vasten Mun Kasvojani Chords & Tabs

Apulanta Chords & Tabs

Version: 1 Type: Tab 0 ratings
1 star 2 stars 3 stars 4 stars 5 stars
comments

Vasten Mun Kasvojani Tab

   
G|----------------------------------------------|
D|-7h9-9-9--9h10--9-7-9--7h9-9-9--12-12--10-9-7-| 
A|-7-7-7-7--7--7--7-7-7--7-7-7-7---7--7--7--7-7-| 

G|--------------------------------------------|
D|-7h9-9-9--9h10--9--7--9--7-x-5-x-4--5--7-10-| 
A|-7-7-7-7--7--7--7--7--7--7-x-7-x-7--7--7--7-|

Säkeistö
Em               Am 
Minä saavun niin matalalla että 
Em         Am           D 
Katkenneet oksat voivat koskettaa minua 
Em    Am             Em
Miten tuntuukaan tää niin 
       Am
Tunteettoman ei-miltään 
Em         Am            D 
Kun mun henkilökohtainen maailma loppuu 

G|----------------------------------------------------------------
D|-17-17-17-17-17-17-16-16-16-16-16-13-13-13-13-13-11-11-11-11-11-
A|----------------------------------------------------------------
[ Tab from: http://www.guitartabs.cc/tabs/a/apulanta/vasten_mun_kasvojani_tab.html ]
 G|-------------------------------------------------
 D|-------------------------------------------------
 A|-15-15-15-15-17-17-17-17-19-19-19-19-21-21-21-21~

 G|-----------------------|
 D|-----------------------|
 A|-21~---19~---17~---15~-|

Mitä odotimmekaan me huomiselta? 
Mitä sen kuormaan lastattiin? 
Karu totuus on kaivautunut sen alta 
Vaikka sitä kauan peiteltiin 
Ja sitä niin hävettiin 


    E5       C5
Pudota, pelasta 
     A5       D5
Molempien takia 
     C5       G5         A5      H5 XX 
Pohjakosketus suunatamme näyttää 
A5       E5     C5
Suolaa ja tomua 
     A5      D5
Kuolevaa valoa 
       C5      G5      A5
Meidän silmien kuoppia täyttää 
H5
Sylje sinun kapinasi 

Vasten mun kasvojani 

Säkeistö
Minä tahdon vielä
kerran näyttää se haavan
jonka sä unohdit jo niin pitkän aikaa sitten
En enää muista kuinka 
tähän ollaankaan luisuttu
mut en oo unohtanut mitä me joskus oltiin

Bridge

Kertosäe
Välisoitto 
C Am G 
Comments