Apulanta - Reunalla Chords & Tabs

 

Reunalla Chords & Tabs

Apulanta Chords & Tabs

Version: 1 Type: Tab 0 ratings
1 star 2 stars 3 stars 4 stars 5 stars
comments

Reunalla Tab

   
intro
|-13----13--13----13--13----13-12-13-12----------------|2x
|----12--------12--------12----------------------------|
|------------------------------------------------------|
|------------------------------------------------------|
|------------------------------------------------------|
|------------------------------------------------------|


   Am    C     G     Em    F
 --- --- -2- --- ---
 -1- -1- -2- --- ---
 -2- --- --- -1- -2-
 -2- -2- --- -2- -3-
 --- -3- -2- -2- -3-
 --- --- -3- --- -1-
[ Tab from: http://www.guitartabs.cc/tabs/a/apulanta/reunalla_tab.html ]
  Am               G          F
Lumen alta löytyy katkaistu virta
  Am               G                 F     
Tänään ei hopeinen kuu luo merelle siltaa
  Am               G          F
Sammalet peittävät, sammalet ympäröivät
  Am                    G           F 
Painosta oksat taipuu pian latva katkeaa
 
Am     C   G        Em  F
Reunalla -kaunis on maailma
Am     C   G      Em  F
Reunalla -rohkeus on voimaa
Am     C   G       Em   F
Reunalla -loistavaa tunnelmaa
Am     C   G   Em  F      F
Reunalla hetki on aikaa (ennen kellon lyömää viimeistä)


Raskasta taivaltaa, raskasta kantaa
Kun sokeudeltansa ei löydä taivaanrantaa
Niin lämpö korventaa kunnes on pelkkää mustaa
Kaikki ampuu suoraan kohti ilman varoitusta(Toivo on vain ensimmäinen askel tiellä pettymysten)

Reunalla -kaunis on maailma
Reunalla  -rohkeus on voimaa
Reunalla -loistavaa tunnelmaa
Reunalla hetki on aikaa (ennen kellon lyömää viimeistä
Comments