Apulanta - Ilona Chords & Tabs

 

Ilona Chords & Tabs

Apulanta Chords & Tabs

Version: 1 Type: Tab 0 ratings
1 star 2 stars 3 stars 4 stars 5 stars
comments

Ilona Tab

E|--------------------------------------------------------------------------|
H|---------------------5-3---5-3---------3------3---------------------------|
G|-2-5-4-2-5-4-2-5---------5------5-4------5-4------5-4-1-1-2-4-4/5-4-2-----|
D|--------------------------------------------------------------------------|
A|--------------------------------------------------------------------------|
E|--------------------------------------------------------------------------|


E|--------------------------------------------------------------------------|
H|---------------------5-3---5-3---------3------3---------------------------|
G|-2-5-4-2-5-4-2-5---------5------5-4------5-4------5-4-1-1-2-4-4/5-4-2-----|
D|--------------------------------------------------------------------------|
A|--------------------------------------------------------------------------|
E|--------------------------------------------------------------------------|
[ Tab from: http://www.guitartabs.cc/tabs/a/apulanta/ilona_tab.html ]
Comments