Apulanta - Ei Tanaan Chords & Tabs

 

Ei Tanaan Chords & Tabs

Apulanta Chords & Tabs

Version: 2 Type: Tab 0 ratings
1 star 2 stars 3 stars 4 stars 5 stars
comments

Ei Tanaan Tab

   
Em              Am              D               G
|-0---0-0---0-0-0-5---5-5---5-5-5-2---2-2---2-2-2-3---3-3---3-3-3-|
|-0---0-0---0-0-0-5---5-5---5-5-5-3---3-3---3-3-3-3---3-3---3-3-3-|
|-0---0-0---0-0-0-5---5-5---5-5-5-2---2-2---2-2-2-4---4-4---4-4-4-|
|-2---2-2---2-2-2-7---7-7---7-7-7-0---0-0---0-0-0-5---5-5---5-5-5-|
|-2---2-2---2-2-2-0---0-0---0-0-0-0---0-0---0-0-0-5---5-5---5-5-5-|
|-0---0-0---0-0-0---------------------------------3---3-3---3-3-3-|
  Tahtoisin       saattaa         sua       kotiinpäin
  jos vielä       muistat         kun        äskettäin 
  mua kutsuit     ja saitkin      mut purkan vaan haitkin
  sä teit mut     sä loit mut     sä veit mut ja söit mut

  Voi Luoja       sentään         jos        ymmärtää
  vois yhden      kerran          sun       häirintää
  jos niinkuin    sais pyytää     ei tartte mua syyttää
  taas liikaa     saat kantaa     kiristää mun pantaa

dist

  G5 F#5 E5          D5 C5        G5              D5
|-----------------------------------------------------------------|
|--------------------(3)------------------------------------------|
|--------------------(2)5---5-5-------------------7-7-7-7-7-7-7-7-|
|-5-5-4-2---2-2---2-2-0-5---5-5---5-5-5-5-5-5-5-5-7-7-7-7-7-7-7-7-|
|-5-5-4-2---2-2---2-2-0-3---3-3---5-5-5-5-5-5-5-5-5-5-5-5-5-5-5-5-|
|-3-3-2-0---0-0---0-0-------------3-3-3-3-3-3-3-3-----------------|
                                  taivaaseen ei pääse tänään
                                  ei tänään pääse mihinkään
  D5
|-------------------------------------------------------------0---| |-----|
|-------------------------------------------------------------0---| |-----|
|-7-7-7-7-7-7-7-7-7-7-7-7-7-7-7-7-7-7-7-7-7-7-7-7-7-7-7-7-7-7-0---| |-7b9-|
|-7-7-7-7-7-7-7-7-7-7-7-7-7-7-7-7-7-7-7-7-7-7-7-7-7-7-7-7-7-7-2---| |-----|
|-5-5-5-5-5-5-5-5-5-5-5-5-5-5-5-5-5-5-5-5-5-5-5-5-5-5-5-5-5-5-2---| |-----|
|-------------------------------------------------------------0---| |-----|
  Ei ainakaan kun huvittaa ja sylettää kun täytyy silti venyttää

acustic

  Em              Am              D               G
|-0---0-0---0-0-0-5---5-5---5-5-5-2---2-2---2-2-2-3---3-3---3-3-3-|
|-0---0-0---0-0-0-5---5-5---5-5-5-3---3-3---3-3-3-3---3-3---3-3-3-|
|-0---0-0---0-0-0-5---5-5---5-5-5-2---2-2---2-2-2-4---4-4---4-4-4-|
|-2---2-2---2-2-2-7---7-7---7-7-7-0---0-0---0-0-0-5---5-5---5-5-5-|
|-2---2-2---2-2-2-0---0-0---0-0-0-0---0-0---0-0-0-5---5-5---5-5-5-|
|-0---0-0---0-0-0---------------------------------3---3-3---3-3-3-|
  En taida        kiiltää         kuin        ykkönen
  ei taida        riittää         mun        kukkanen
  Voit viiltää    mua silmiin     mä kuulun       vaan filmiin
  on helppo       unohtaa         kun itse        niin hohtaa

dist
[ Tab from: http://www.guitartabs.cc/tabs/a/apulanta/ei_tanaan_tab_ver_2.html ]
  G5 F#5 E5          D5 C5        G5              D5
|-----------------------------------------------------------------|
|--------------------(3)------------------------------------------|
|--------------------(2)5---5-5-------------------7-7-7-7-7-7-7-7-|
|-5-5-4-2---2-2---2-2-0-5---5-5---5-5-5-5-5-5-5-5-7-7-7-7-7-7-7-7-|
|-5-5-4-2---2-2---2-2-0-3---3-3---5-5-5-5-5-5-5-5-5-5-5-5-5-5-5-5-|
|-3-3-2-0---0-0---0-0-------------3-3-3-3-3-3-3-3-----------------|
                                  taivaaseen ei pääse tänään
                                  ei tänään pääse mihinkään
  D5
|-----------------------------------------------------------------|
|-----------------------------------------------------------------|
|-7-7-7-7-7-7-7-7-7-7-7-7-7-7-7-7-7-7-7-7-7-7-7-7-7-7-7-7-7-7-7-7-|
|-7-7-7-7-7-7-7-7-7-7-7-7-7-7-7-7-7-7-7-7-7-7-7-7-7-7-7-7-7-7-7-7-|
|-5-5-5-5-5-5-5-5-5-5-5-5-5-5-5-5-5-5-5-5-5-5-5-5-5-5-5-5-5-5-5-5-|
|-----------------------------------------------------------------|
  Ei ainakaan kun huvittaa ja sylettää kun täytyy silti venyttää

  Am              Em              G               D
|-----------------------------------------------------------------|
|-------------------------------------------------3-3-3-3-3-3-3-3-|
|-5-5-5-5-5-5-5-5-0-0-0-0-0-0-0-0-4-4-4-4-4-4-4-4-2-2-2-2-2-2-2-2-|
|-7-7-7-7-7-7-7-7-2-2-2-2-2-2-2-2-5-5-5-5-5-5-5-5-0-0-0-0-0-0-0-0-|
|-7-7-7-7-7-7-7-7-2-2-2-2-2-2-2-2-5-5-5-5-5-5-5-5-----------------|
|-5-5-5-5-5-5-5-5-0-0-0-0-0-0-0-0-3-3-3-3-3-3-3-3-----------------|
     ma heitan pois sen kaiken jos sua huvittaa
     sun maalaukset taas mun peilin kuvittaa

        Solo

|-----------------------------------------------------------------|
|-----------------------------------------------------------------|
|-7b9 9-7b9 9-7-5-4-----------------------------------------------|
|-------------------5-... ----------------------------------------|
|-----------------------------------------------------------------|
|-----------------------------------------------------------------|

  Em              Am              D               G
|-0---0-0---0-0-0-5---5-5---5-5-5-2---2-2---2-2-2-3---3-3---3-3-3-|
|-0---0-0---0-0-0-5---5-5---5-5-5-3---3-3---3-3-3-3---3-3---3-3-3-|
|-0---0-0---0-0-0-5---5-5---5-5-5-2---2-2---2-2-2-4---4-4---4-4-4-|
|-2---2-2---2-2-2-7---7-7---7-7-7-0---0-0---0-0-0-5---5-5---5-5-5-|
|-2---2-2---2-2-2-0---0-0---0-0-0-0---0-0---0-0-0-5---5-5---5-5-5-|
|-0---0-0---0-0-0---------------------------------3---3-3---3-3-3-|
  Dudumdum dudumdum...

  b = bend
|----------------------------------------------|
|----------------------------------------------|
|-11b12----11b12b11-9----9\7----7b9b7-5-4------|
|----------------------------------------------|
|----------------------------------------------|
|----------------------------------------------|

|----------------------------------------------|
|-19b20----19b20b19-17--19\15---15b19b15-12-11-|
|----------------------------------------------|
|----------------------------------------------|
|----------------------------------------------|
|----------------------------------------------|

|-----------------------------------0-0-0-0-0-0-0-0-0-0-0-0--0--0--0--0--0--|
|-5-5-5-5-5-5-5-5-5-5-5-5-5-5-5-5-5-7-7-7-5-5-5-7-7-8-8-8-10-10-10-12-12-12-|
|-4-4-4-2-2-2-0-0-7-7-7-5-5-5-4-4-4-----------------------------------------|
|---------------------------------------------------------------------------|
|---------------------------------------------------------------------------|
|---------------------------------------------------------------------------|
dist

  G5 F#5 E5          D5 C5        G5              D5
|-----------------------------------------------------------------|
|--------------------(3)------------------------------------------|
|--------------------(2)5---5-5-------------------7-7-7-7-7-7-7-7-|
|-5-5-4-2---2-2---2-2-0-5---5-5---5-5-5-5-5-5-5-5-7-7-7-7-7-7-7-7-|
|-5-5-4-2---2-2---2-2-0-3---3-3---5-5-5-5-5-5-5-5-5-5-5-5-5-5-5-5-|
|-3-3-2-0---0-0---0-0-------------3-3-3-3-3-3-3-3-----------------|
                                  taivaaseen ei pääse tänään
                                  ei tänään pääse mihinkään
                                  taivaaseen ei pääse tänään
                                  ei tänään pääse mihinkään
  D5
|-------------------------------------------------------------0---|
|-------------------------------------------------------------0---|
|-7-7-7-7-7-7-7-7-7-7-7-7-7-7-7-7-7-7-7-7-7-7-7-7-7-7-7-7-7-7-0---|
|-7-7-7-7-7-7-7-7-7-7-7-7-7-7-7-7-7-7-7-7-7-7-7-7-7-7-7-7-7-7-2---|
|-5-5-5-5-5-5-5-5-5-5-5-5-5-5-5-5-5-5-5-5-5-5-5-5-5-5-5-5-5-5-2---|
|-------------------------------------------------------------0---|
  Ei ainakaan kun huvittaa taas sylettää kun täytyy silti venyttää
Comments