Apulanta - 006 Chords & Tabs

 

006 Chords & Tabs

Apulanta Chords & Tabs

Version: 1 Type: Tab 0 ratings
1 star 2 stars 3 stars 4 stars 5 stars
comments

006 Tab

 4+4x
E|-----------------------------------------------------------------|
H|-----------------------------------------------------------------|
G|-----------------------------------------------------------------|
D|-----------------------------------------------------------------|
A|-8---8---8---8-8-7---7---7---7-7-8---7-------5-------5---5---5---|
D|-0---0---0---0-0-0---0---0---0-0-0---0-------0-------0---0---0---|
  särö

  kakkoskitara 5. kerralla mukaan: 4x
E|-----------------------------------------------------------------|
H|-----------------------------------------------------------------|
G|-----------------------------------------------------------------|
D|-----------------------------------------------------------------|
A|-3---3---3-------2---2---2-------3---2--------0------0---0---0-0-|
D|-3---3---3-------2---2---2-------3---2--------0------0---0---0-0-|
  
  Hiljaa valun pitkin...
E|-----------------------------------------------------------------|
H|-----------------------------------------------------------------|
G|-----------------------------------------------------------------|
D|---------------------------------2---2---2---2---2---2---2---2---|
A|-3---3---3---3---3---3---3---3---0---0---0---0---0---0---0---0---|
D|-3---3---3---3---3---3---3---3-----------------------------------|
  minun                        ikkunaa

  Kaikki muut on menneet...
E|-----------------------------------------------------------------|
H|-----------------------------------------------------------------|
G|-----------------------------------------------------------------|
D|---------------------------------2---2---2---2---2---2---2---2---|
A|-3---3---3---3---3---3---3---3---0---0---0---0---0---0---0---0---|
D|-3---3---3---3---3---3---3---3-----------------------------------|
  Kuinka voisin                 tietää missä

E|-----------------------------------------------------------------|
H|-----------------------------------------------------------------|
G|-----------------------------------------------------------------|
D|-----------------------------------------------------------------|
A|-8---8---8---8---8---8---8---8---8---8---8---8---8---8---8---7---|
D|-8---8---8---7---8---8---8---7---8---8---8---7---8---8---8---7---|
  taas

E|-----------------------------------------------------------------|
H|-----------------------------------------------------------------|
G|-----------------------------------------------------------------|
D|-----------------------------------------------------------------|
A|-0---0---0---0-0-0-0-0---0---0-0-0---0---0---0-0-0-0-0---0---0-0-|
D|-0---0---0---0-0-0-0-0---0---0-0-0---0---0---0-0-0-0-0---0---0-0-|
  palaa

E|-----------------------------------------------------------------|
H|-----------------------------------------------------------------|
G|-----------------------------------------------------------------|
D|-----------------------------------------------------------------|
A|-8---8---8---8---8---8---8---8---8---8---8---8---8---8---8---7---|
D|-8---8---8---7---8---8---8---7---8---8---8---7---8---8---8---7---|
  taas

E|-----------------------------------------------------------------|
H|-----------------------------------------------------------------|
G|-----------------------------------------------------------------|
D|-----------------------------5---5---5---5---5---5---5---5---5---|
A|-3---3---3---3---3---3---3---3---3---3---3---3---3---3---3---3---|
D|-3---3---3---3---3---3---3---3-----------------------------------|
  palaa

Kaiken kauniin päälle/ varhot laskeutuu/ Sadan vuoden jälkeen/ ruusut
ovat hautautuneet/ Alle jään/ Alle jään/
[ Tab from: http://www.guitartabs.cc/tabs/a/apulanta/006_tab.html ]
E|-----------------------------------------------------------------|
H|-----------------------------------------------------------------|
G|-----------------5---5---5---5---3---3---3-----------------------|
D|-0---0---0---0---5---5---5---5---3---3---3---3---3---3---3---3---|
A|-0---0---0---0---3---3---3---3---1---1---1---3---3---3---3---3---|
D|-0---0---0---0-------------------------------0---0---0---0---0---| 
3x Lal     lal     lal     lal     lakaist  -  taan
                                                       se

E|-----------------------------------------------------------------|
H|-----------------------------------------------------------------|
G|---------------------------------2---2---2---2---5---5---5---5---|
D|-3---3---3---3---3---3---3---3---2---2---2---2---5---5---5---5---|
A|-3---3---3---3---3---3---3---3---0---0---0---0---3---3---3---3---|
D|-2---2---2---2---2---2---2---2-----------------------------------|
  pois se pois se                  kaikki          piiloon

E|-----------------------------------------------------------------|
H|-----------------------------------------------------------------|
G|-----------------------------------------------------------------|
D|-----------------------------------------------------------------|
A|-8---8---8---8-8-7---7---7---7-7-8---7-------5-------5---5---5---|
D|-0---0---0---0-0-0---0---0---0-0-0---0-------0-------0---0---0---|
  särö

E|-----------------------------------------------------------------|
H|-----------------------------------------------------------------|
G|-----------------------------------------------------------------|
D|-----------------------------------------------------------------|
A|-3---3---3-------2---2---2-------3---2--------0------0---0---0-0-|
D|-3---3---3-------2---2---2-------3---2--------0------0---0---0-0-|

Sammuttakaa tähdet/ Sammuttakaa aamu/ Sammuttakaa lamput/ Sammuttakaa
aurinko/ ei saa saa saa se paistaa/ Ei saa saa saa se paistaa/
Lallallallal lakaistaan...

 Soolo: (3x)
E|-----------------------------------------------------------------|
H|-----------------------------------------------------------------|
G|-----------------------------------------------------------------|
D|-3---3---3---3---3---3---3---3-----------------------------------|
A|-1---1---1---1---1---1---1---1---3---3---3---3---3---3---3---3---|
D|---------------------------------3---3---3---3---3---3---3---3---|

E|-----------------------------------------------------------------|
H|-----------------------------------------------------------------|
G|-----------------------------------------------------------------|
D|-5---5---5---5---5---5---5---5---5---5---5---5---5---5---5---5---|
A|-3---3---3---3---3---3---3---3---3---3---3---3---3---3---3---3---|
D|-----------------------------------------------------------------|

E|-----------------------------------------------------------------|
H|-----------------------------------------------------------------|
G|-----------------------------------------------------------------|
D|-7---7---7---7---5---5---5---5---3---3---3-----------------------|
A|-5---5---5---5---3---3---3---3---1---1---1---3---3---3---3---3---|
D|---------------------------------------------3---3---3---3---3---|
  Naa      naa     naa     naa

E|-----------------------------------------------------------------|
H|-----------------------------------------------------------------|
G|-------------------------------------------------5---5---5---5---|
D|---------------------------------2---2---2---2---5---5---5---5---|
A|-3---3---3---3---3---3---3---3---0---0---0---0---3---3---3---3---|
D|-2---2---2---2---2---2---2---2-----------------------------------|

Comments