April Wine - Bad Side Of The Moon Chords & Tabs

 

Bad Side Of The Moon Chords & Tabs

April Wine Chords & Tabs

Version: 1 Type: Tab 0 ratings
1 star 2 stars 3 stars 4 stars 5 stars
comments

Bad Side Of The Moon Tab

   
Band name: April Wine
Song name: Bad Side of the Moon
Tabbed by: ScHrOeDer
 
Standard Tuning: EADGBE

Intro:

e|--------------------------------------------------|
B|--------------------------------------------------| 
G|----1--1---------3--3------1--1-------1--1--------|  
D|---0--0--0--x6--3--3--3---2--2---2---0--0--0------|\ 
A|-----2------------3---------3----------2----------| \
E|--3----3-------1-----1---3-----3----3-----3-------|  \
e|--------------------------------------------------|   \
    C            Bb        F          C                 repeat both measures
                                                        but play first C
e|--------------------------------------------------|   pattern just once
B|--------------------------------------------------|  /
G|----1--1-------3--3------1--1-----1---------------| /    
D|---0--0--0----3--3--3---2--2---2--0---------------|/   
A|-----2----------3---------3-------2---------------|  
E|--3----3-----1-----1---3-----3----3---------------|
    C            Bb        F          C

Then:
[ Tab from: http://www.guitartabs.cc/tabs/a/april_wine/bad_side_of_the_moon_tab.html ]
e|--8--8----6-6---8--8----8--8----------------------|
B|--8--8----6-6---10-10---8--8----------------------|
G|--9--9----7-7---10-10---9--9----------------------|
D|--10-10---8-8---10-10---10-10---------------------| repeat
A|--10-10---8-8---8--8----10-10---------------------|
E|--8--8----6-6-----------8--8----------------------|
    C       Bb    F       C                          
This's my life, this's my life...  

Verses
 
e|--8--8--8--8----8--8----8--8----6-6---8--8----6-66---6---8---|
B|--8--8--8--8----10-10---8--8----6-6---10-10---8-88---6---8---|
G|--9--9--9--9----10-10---9--9----7-7---10-10---8-88---7---9---|
D|--10-10-10-10---10-10---10-10---8-8---10-10---8-88---8---10--|repeat
A|--10-10-10-10---8--8----10-10---8-8---8--8----6-66---8---10--|
E|--8--8--8--8------------8--8----6-6------------------6---8---|
    C             F       C       Bb    F       Eb     Bb  C
Seems as tho Ive lived my life...

Then:

e|--8-----8-----6----6-----8-----6--6--8------------|
B|--10----8-----8----6-----8-----8--6--8------------|
G|--10----9-----8----7-----9-----8--7--9------------|
D|--10----10----8----8-----10----8--8--10-----------|
A|--8-----10----6----8-----10----6--8--10-----------|
E|--------8----------6-----8--------6--8------------|
    F     C     Eb   Bb    C     Eb Bb C
I'm a light world away...

Chorus:

e|-8--8----6-6---8--8----8--8---------------------------|
B|-8--8----6-6---10-10---8--8---------------------------|
G|-9--9----7-7---10-10---9--9---------------------------|
D|-10-10---8-8---10-10---10-10--------------------------|
A|-10-10---8-8---8--8----10-10--------------------------|
E|-8--8----6-6-----------8--8---------------------------|
   C      Bb   F      C
This's my life, this's my life...

Then theres one more verse and the chorus plays over and 
over to the end
Comments