Apollo Sunshine - Egg Chords & Tabs

 

Egg Chords & Tabs

Apollo Sunshine Chords & Tabs

Version: 1 Type: Tab

Egg Tab

        
e:0-------0--2-------2--4--------4--5--7---9--11---12--: 
b:-----2-----------2----------3------------------------: 
g:--2-----------2----------4---------------------------:
d:-----------------------------------------------------:
a:-----------------------------------------------------:
e:-----------------------------------------------------:
[ Tab from: http://www.guitartabs.cc/tabs/a/apollo_sunshine/egg_tab.html ]
e:--------12----------12-------------12--------------12-----:
b:----12----------12------12-----12------12------12------12-:
g:13----------14--------------13-------------14-------------:
d:----------------------------------------------------------:
a:----------------------------------------------------------:
e:----------------------------------------------------------: 

       the ending of the song goes like this
e:------12----------12----------12----------12-----12-11-----12-11---------:
b:---12----12----12----12----12----12----12----12---------12-------12----12:
g:13----------14----------13----------14------------------------------13---:
d:-------------------------------------------------------------------------:
a:-------------------------------------------------------------------------:
e:-------------------------------------------------------------------------: 

e:14--11-----------------12-----:
b:--------12---------12------12-: continue  ^
g:------------14--13------------:
d:------------------------------:
a:------------------------------:
e:------------------------------: