Aphex Twin - Come To Daddy Chords & Tabs

 

Come To Daddy Chords & Tabs

Aphex Twin Chords & Tabs

Version: 2 Type: Bass Tab 0 ratings
1 star 2 stars 3 stars 4 stars 5 stars
comments

Come To Daddy Bass Tab

Aphex Twin - Come to Daddy

This whole song uses thick bass distortion.

"…I want your soul…"
|------------------------------------------------------------|
|------------------------------------------------------------|
|-3-3-3-3-3-3-3-3-2-2-2-2-2-2-2-2--------------------|
|----------------------------------------1-1-1-1-1-1-1-1-|
[ Tab from: http://www.guitartabs.cc/tabs/a/aphex_twin/come_to_daddy_btab_ver_2.html ]
Bridge
|--------------------------------------------------------------------------|
|--------------------------------------------------------------------------|
|-------------------------------------------------6-6-6-6-6-6-6-6-6-6-|
|-3-3-3-3-3-3-3-3-6-6-6-6-6-6-6-6-4-4-4---------------------------|

Tabbed by BENDA
wacka_smacka@hotmail.com



Comments