Anyone - Dont Wake Me Chords & Tabs

 

Dont Wake Me Chords & Tabs

Anyone Chords & Tabs

Version: 1 Type: Tab 0 ratings
1 star 2 stars 3 stars 4 stars 5 stars
comments

Dont Wake Me Tab

   
 Band:Anyone
 Song:Don't Wake Me
 Tabber:Daniel Brown (Pacifica) DanMaxMini@aol.com
 Website: http://jam-session.port5.com
 
  b^ = bend up
  bV = bend down
  h = hammer-on
  p = pull off

 ( ) = first time only

  Standard Tuning :)

  INTRO (let notes ring)  (also used in breaks)

   Clean

 e|------------------------------------------------|
 b|--------7------7---------5-----------4----------|
 g|------------------------------------------------|
 d|----8-----------------6----------5--------------|
 a|--9---9----9-------7----------6---------6-------|
 E|------------------------------------------------|

 e|----------------------------------------------------------|           
 b|--------7-9-7h9p7h9p7--------7----------5--------------4--|          
 g|----------------------------------------------------------|           
 d|----8---------------------6-----------5-------------------| 
 a|--9---9---------------9--------7----------6--------6------|
 E|----------------------------------------------------------|


  Distortion! 
[ Tab from: http://www.guitartabs.cc/tabs/a/anyone/dont_wake_me_tab.html ]
 e|------------------------------------------------|
 b|--------7------7---------5-----------4----------|
 g|------------------------------------------------|  -------------------|
 d|----8-----------------6----------5--------------|                     |  
 a|--9---9----9-------7----------6---------6-------|                     |  
 E|------------------------------------------------|                     | 
                                                                         |
                                                                         |
                                                                         |
              |Play fast|                                               x2    
              |         |                                                |
 (e|----------------------------------------------------------|)         |
 (b|--------7-9-7h9p7h9p7--------7----------5--------------4--|)         |
 (g|----------------------------------------------------------|)         |
 (d|----8---------------------6-----------5-------------------|) --------|   
 (a|--9---9---------------9--------7----------6--------6------|)
 (E|----------------------------------------------------------|)


 e|------------------------------------------------|
 b|--------7------7---5----------4-----------------|
 g|------------------------------------------------|
 d|----8--------------6----------5-----------------|
 a|--9---9----9-------7----------6-----------------|
 E|------------------------------------------------|


  VERSE (let notes ring)  Distortion!  (also used in interlude)

 e|----19---------------------|
 b|--------20-----------------|
 g|------------19-------------|  repeat as needed
 d|---------------------------|
 a|---------------------------|
 E|---------------------------|

   Pre-Interlude (Just before bass solo)

 e|----19--------------------------------------------|
 b|--------20----------------------------------------|
 g|------------19------------------7---9b^--9v--7-9--| 
 d|-----------------------9--10----------------------|
 a|--------------------------------------------------|
 E|--------------------------------------------------|
Comments