Anus Benus - Panhofer Stirb Chords & Tabs

 

Panhofer Stirb Chords & Tabs

Anus Benus Chords & Tabs

Version: 1 Type: Tab 0 ratings
1 star 2 stars 3 stars 4 stars 5 stars
comments

Panhofer Stirb Tab

artist : anus benus
title: panhofer stirb...(panhofer die !!)
?written? : 2001
visit anus-benus website: www.anus-benus.here.de or  www.novysp.here.de

this is a song for all pupils beeing punished by their teachers!  ..tabbed by novy

play 3 times

E------------------------------------------------------------------------|
A------------------------------------------------------------------------|
D-----2---x---2---2---2-----0------2/5-----------------------------------|
G-----2---x---2---2---2-----0------2/5-----5--------------------------0--|
H-----1---x---1---1---1-----0------2/5----------5------6b0-----5---------|
e------------------------------------------------------------------------|

then:
[ Tab from: http://www.guitartabs.cc/tabs/a/anus_benus/panhofer_stirb_tab.html ]
E-----------------------------------------------------------|
A-------------------------------------3---3----x-----2---2--|
D-----2---x---2---2---2-----0------2---2----x-----2---2-----|
G-----2---x---2---2---2-----0----------------x-----1---1----|
H-----1---x---1---1---1-----0------1---1----x---------------|
e-----------------------------------------------------------|

then : CHAOS ? total destuction of your instruments...aaaaaagh....DISTORTION !!

and again from the beginning.....makes a lot of fun!!


Lyrics:  Panhofer stirb 2x

	  ja so stiegen k?nnen hart sein..
	  warum brichst du dir nicht dein behaartes bein
	  warum f?llt du nicht gleich auf den seeger drauf
	  ...der ist genau wie du ein schwein !

	panhofer stirb....

	mit deiner schei?frisur
	siehst du aus wie eine m?nnliche hur..
	und wenn du uns schon keinen gefallen tust..
	....dann spring doch wenigstens aus einem fenster!

	panhofer stirb.....
Comments