Antimatter - Angelic Chords & Tabs

 

Angelic Chords & Tabs

Antimatter Chords & Tabs

Version: 1 Type: Tab 0 ratings
1 star 2 stars 3 stars 4 stars 5 stars
comments

Angelic Tab

Artist: Antimatter
Song: Angelic
Album: Saviour
Tabbed by: Marcin Golba


Intro:
|-------------------------------------------------------------------------|
|--------------------------------6----------------------------------------|
|--------5-5--5---5------5-5---5---5------5-5--5---5---------5-5---5---5--|
|-----5---------5------5-----5----------5--------5---------5-----5---5----|
|--3----------------------------------------------------------------------|
|--------------------4----------------1------------------4----------------|

|-----------------------------------------------------------------|
|--------------------------------6-----------------------------6--|
|-------5-5---5---5------5-5---5---5------5-5---5---5------5------|
|-----5-----5---5------5-----5----------5-----5---5------5---5----|
|--3--------------------------------------------------------------|
|--------------------4----------------1----------------4----------|

Verse 1:
|-----------------------------------------------------------------------|
|--------------------------------6---------------------------------6----|
|-------5-5---5---5------5-5---5---5------5-5---5---5------5-5---5---5--| 3x
|-----5-----5---5------5-----5----------5-----5---5------5-----5--------|
|--3--------------------------------------------------------------------|
|--------------------4----------------1----------------4----------------|

|-----------------------------------------------------------------|
|--------------------------------6-----------------------------6--|
|-------5-5---5---5------5-5---5---5------5-5---5---5------5------|
|-----5-----5---5------5-----5----------5-----5---5------5---5----|
|--3--------------------------------------------------------------|
|--------------------4----------------1----------------4----------|
[ Tab from: http://www.guitartabs.cc/tabs/a/antimatter/angelic_tab.html ]
Bridge:
|---------------------------------------------------------------|
|--6-----------------------------6------------------------------|
|--5------5------5-------5-5---5---5---5------5------5------5---|
|--5----5------5-------5-----5-------5------5------5------5-----|
|---------------------------------------------------------------|
|-----1------3------4---------------------1------3------4-------|

Verse 2:
|-----------------------------------------------------------------------|
|--------------------------------6--------------------------------------|
|-------5-5---5---5------5-5---5---5------5-5---5---5------5-5---5---5--| 3x
|-----5-----5---5------5-----5----------5-----5---5------5-----5---5----|
|--3--------------------------------------------------------------------|
|--------------------4----------------1----------------4----------------|

|-----------------------------------------------------------------|
|--------------------------------6-----------------------------6--|
|-------5-5---5---5------5-5---5---5------5-5---5---5------5------|
|-----5-----5---5------5-----5----------5-----5---5------5---5----|
|--3--------------------------------------------------------------|
|--------------------4----------------1----------------4----------|

Bridge:
|-----------------------------------------|
|--6-----------------------------6--------|
|--5------5------5-------5-5---5---5---5--| 2x
|--5----5------5-------5-----5-------5----|
|-----------------------------------------|
|-----1------3------4---------------------|

|--------------------------------------|
|--------------------------------------|
|------5------5-------5-5---5---5---5--|
|----5------5-------5-----5---5---5----|
|--------------------------------------|
|--1------3------4---------------------|

|---------------------|
|---------------------|
|------5------5-------|
|----5------5---------|
|---------------------|
|--1------3------4----|


Outro:
|------------------------------------------|
|--4--3--1----1--3--1------3--1---1--3--4--|
|------------------------------------------|
|------------------------------------------|
|------------------------------------------|
|------------------------------------------|


---------------------------------------------------------------------------
www.betteroffdead.prv.pl
Comments