Antimaniax - In Front Of Your Eyes Chords & Tabs

 

In Front Of Your Eyes Chords & Tabs

Antimaniax Chords & Tabs

Version: 1 Type: Bass Tab 0 ratings
1 star 2 stars 3 stars 4 stars 5 stars
comments

In Front Of Your Eyes Bass Tab

G--------------------------------------4-----2------------|
D-4444 2-------1121---4444-2----2 4--2----0---------------|
A-------- 2 22--------------2-----------------------------|
E---------------------------------------------------------|

G--------------------------------------4-----6------------|
D-4444-2------ 1121-- 4444-2----2-4--2----4---------------|
A-------- 2 22--------- -----2----------------------------|
E---------------------------------- ----------------------|

Bridge/Chorus
[ Tab from: http://www.guitartabs.cc/tabs/a/antimaniax/in_front_of_your_eyes_btab.html ]
G-----------------------------------------------------------------------------|
D--------------2-----4-----------------2-----44-21---------------- 2-----4-4--|
A-2------------------------2----------------------------2-------------------2-|
E-----------------------------------------------------------------------------|

G----------------------------------------|
D--------2------44-21--------------------|
A-------------------------2--------------|
E----------------------------------------|


Heavy bit at end of last verse

G---------------------|
D-------2---4---------|
A---2-----------------|
E---------------------|
Comments