Antiflag - Tearing Everyone Down Chords & Tabs

 

Tearing Everyone Down Chords & Tabs

Antiflag Chords & Tabs

Version: 1 Type: Tab 0 ratings
1 star 2 stars 3 stars 4 stars 5 stars
comments

Tearing Everyone Down Tab

   
"Tearing Everyone Down"
Anti-Flag
A New Kind of Army
Tabbed by lvhardflip@aol.com

INTRO
e:--------------
B:--------------
G:-------------- Repeat a few times
D:---6---6---6-6
A:4-4-4-4-4-4-4-
E:--------------

Verse(sometimes palm-muted)/Chorus-played various ways
e:--------------------------------
B:--------------------------------
G:--------------------------------
D:6-6-6-6---------4-4-4-4---------
A:4-4-4-4-7-7-7-7-2-2-2-2-4-4-4-4-
E:--------5-5-5-5---------2-2-2-2-

The sweet fill
e:------------------------ play 2x
B:--------------4-5-4-2-4-
G:6-6-6-4-6b-6-6---------4
D:------------------------
A:------------------------
E:------------------------

Pre-chorus
e:--------------------------
B:--------------------------
G:--------------------------
D:9-9-9---------------------
A:7-7-7-9-9-9-11=11-11-7-7-7
E:------7-7-7-9--9--9--5-5-5

SOLO
[ Tab from: http://www.guitartabs.cc/tabs/a/antiflag/tearing_everyone_down_tab.html ]
e:------------------------------------
B:------------------------------------
G:13-13-13-11-13-13-13-11-13-11-9-11-9
D:------------------------------------
A:------------------------------------
E:------------------------------------

e:-------------------------------------
B:14-----------------17s16sp14-17s16p14
G:--13-11-9----9-11b-------------------
D:----------11-------------------------
A:-------------------------------------
E:-------------------------------------

e:------------------------------------
B:17s16sp14-14-1718b-17-14-17-16s15p13
G:------------------------------------
D:------------------------------------
A:------------------------------------
E:------------------------------------

e:16s15p13-16s15p13-13-16-13b~~~------
B:------------------------------------
G:------------------------------------
D:------------------------------------
A:------------------------------------
E:------------------------------------

ok i know the end of the solo is sorta pathetic but it fives you a good
layout- email if you find any major problems lvhardflip@aol.com


Comments