Anti Nowhere League - Streets Of London Chords & Tabs

 

Streets Of London Chords & Tabs

Anti Nowhere League Chords & Tabs

Version: 1 Type: Tab 0 ratings
1 star 2 stars 3 stars 4 stars 5 stars
comments

Streets Of London Tab

-------------------------------------------------------------------------------
			     streets of London- anti-nowhere league
-------------------------------------------------------------------------------
[ Tab from: http://www.guitartabs.cc/tabs/a/anti_nowhere_league/streets_of_london_tab.html ]
By: Dave
e|----------------------------------------------------------------------------|
B|----------------------------------------------------------------------------|
G|9--9-9---7--6--7--9------4--6--7---6--7--9----9--9-9---7--6--7--9---4--9-6-7|
D|9--9-9---7--6--7--9------4--6--7---6--7--9----9--9-9---7--6--7--9---4--9-6-7|
A|7--7-7---5--4--5--7------2--4--5---4--5--7----7--7-7---5--4--5--7---2--7-4-5|
E|----------------------------------------------------------------------------|
opening riff-(London bridge is falling down)

e|---------------------------------------------------------------------------|
B|---------------------------------------------------------------------------|
G|---9--6---------------9--6------------------7--6--976--4--9----------------|
D|7--9--6--4--7--2---7--9--6--4--7--2467------7--6--976--4--9----------------|
A|7--7--4--4--7--2---7--7--4--4--7--2467------5--4--754--2--7----------------|
E|5--------2--5--0---5--------2--5--0245-------------------------------------|
verse and chorus                                 bridge

the rest of the song is just a mix of those  and I don't got the solo down  and that’s towards the end

brit punk kicks ass!!


later i may tab i hate people by the league so keep an eye out for that
Comments