Anti-nowhere League - Long Live Punk Chords & Tabs

 

Long Live Punk Chords & Tabs

Anti-nowhere League Chords & Tabs

Version: 1 Type: Tab 0 ratings
1 star 2 stars 3 stars 4 stars 5 stars
comments

Long Live Punk Tab

Anti-nowhere league
Long Live Punk
tabber:gene wiltshire

i havnt tabbed the little bend thing because i cant work them out, but im pretty
sure this is 95% right. you mite have to work out the rythm yourself 'cos i probably
did a rubbish job of it


intro

|-----------------|
|-----------------|
|-7-7-7-7-7-7-7-7-|
|-7-7-7-7-7-7-7-7-|
|-5-5-5-5-5-5-5-5-|
|-----------------|

verse

|------------------------------------------------------------------|
|------------------------------------------------------------------|
|-----------------7777777777777777----------------7777777777777777-|
|-7777777777777777777777777777777777777777777777777777777777777777-|
|-7777777777777777555555555555555577777777777777775555555555555555-|
|-5555555555555555----------------5555555555555555-----------------|

pre-chorus

|--------------   |-------------------------|
|--------------   |-------------------------|
|--------------   |----------------77777777-|
|-4--5-77777777X2 |777777777777777777777777-|
|-4--5-77777777   |777777777777777755555555-|
|-2--3-55555555   |5555555555555555---------|

Chorus

|------------------     |------|
|------------------     |------|
|-999977779999-----     |9-7---|
|-999977779999-5555     |9-7-5-|
|-777755557777-5555 X2  |7-5-5-|
|--------------3333     |----3-|


verse
[ Tab from: http://www.guitartabs.cc/tabs/a/anti_nowhere_league/long_live_punk_tab.html ]
|------------------------------------------------------------------|
|------------------------------------------------------------------|
|-----------------7777777777777777----------------7777777777777777-|
|-7777777777777777777777777777777777777777777777777777777777777777-|
|-7777777777777777555555555555555577777777777777775555555555555555-|
|-5555555555555555----------------5555555555555555-----------------|


pre-chorus

|--------------   |-------------------------|
|--------------   |-------------------------|
|--------------   |----------------77777777-|
|-4--5-77777777X2 |777777777777777777777777-|
|-4--5-77777777   |777777777777777755555555-|
|-2--3-55555555   |5555555555555555---------|


Chorus

|------------------    |------|
|------------------    |------|
|-999977779999-----    |9-7---|
|-999977779999-5555 X2 |9-7-5-|
|-777755557777-5555    |7-5-5-|
|--------------3333    |----3-|


verse

|------------------------------------------------------------------|
|------------------------------------------------------------------|
|-----------------7777777777777777----------------7777777777777777-|
|-7777777777777777777777777777777777777777777777777777777777777777-|
|-7777777777777777555555555555555577777777777777775555555555555555-|
|-5555555555555555----------------5555555555555555-----------------|

pre-chorus

|--------------   |-------------------------|
|--------------   |-------------------------|
|--------------   |----------------77777777-|
|-4--5-77777777X2 |777777777777777777777777-|
|-4--5-77777777   |777777777777777755555555-|
|-2--3-55555555   |5555555555555555---------|

|------------------|
|------------------|
|-999977779999-----| repeat until fade out
|-999977779999-5555|
|-777755557777-5555|
|--------------3333|
Comments