Anti Heros - Rock N Roll Fantasy Chords & Tabs

 

Rock N Roll Fantasy Chords & Tabs

Anti Heros Chords & Tabs

Version: 1 Type: Tab 0 ratings
1 star 2 stars 3 stars 4 stars 5 stars
comments

Rock N Roll Fantasy Tab

   
Band:Anti-Heros
Song: Rock N' Roll Fantasy
Album: American Pie


tabbed by jam9383@yahoo.com

Intro:
   F#       A        E       B
e---------------------------------------------------------------------|
B---------------------------------------------------------------------|
G---------------------------------------------------------------------|
D-/4-4-----7-7-------2-2-----9-9--------------------------------------|
A-/4-4-----7-7-------2-2-----9-9--------------------------------------|
E-/2-2-----5-5-------0-0-----7-7--------------------------------------|

Verse:

x3   F#           A          E        B              C#
e-------------------------------------------|--------------------------|
B-------------------------------------------|--------------------------|
G--11-11-11-11------------9-9-9-9-----------|--------------------------|
D--11-11-11-11--7-7-7-7---9-9-9-9---9-9-9-9-|-11-11-11-11-11-----------|
A--9--9--9--9---7-7-7-7---7-7-7-7---9-9-9-9-|-11-11-11-11-11-----------|
E---------------5-5-5-5-------------7-7-7-7-|-9--9--9--9--9------------|

Chorus:

x2    F#        A        B       E               C#
e-----------------------------------------|----------------------------|
B-----------------------------------------|----------------------------|
G-11-11-11-11-------------------9-9-9-9---|----------------------------|
D-11-11-11-11--7-7-7-7-9-9-9-9--9-9-9-9---|--11-11-11-11-11------------|
A-9--9--9--9---7-7-7-7-9-9-9-9--7-7-7-7---|--11-11-11-11-11------------|
E--------------5-5-5-5-7-7-7-7------------|--9--9--9--9--9-------------|

Bridge
[ Tab from: http://www.guitartabs.cc/tabs/a/anti_heros/rock_n_roll_fantasy_tab.html ]
either x or just mute by resting fretting hand
e---------------------------------------------------------------------|
B--10-x-12-x--14-x-14-x-12-x-12-x-12-x-9-x-9-x-9-x-10-----------------|
G--11-x-13-x--14-x-14-x-13-x-13-x-13-x-9-x-9-x-9-x-11-----------------|
D---------------------------------------------------------------------|
A---------------------------------------------------------------------|
E---------------------------------------------------------------------|

Solo

e-13br-13br-p10-13b---------------------------------------------------|
B--------------------13br-13brp10--13---------------------------------|
G---------------------------------------------------------------------|
D--------------------------------------------------------9-9-11-11-11-|
A----------------------------------------9-9-11-11-12-12--------------|
E---------------------------------------------------------------------|

e---------------------------------------------------------------------|
B----------------------------5/---7----9--10----12-p9h12--------------|
G---------------------------------------------------------------------|
D-9-9-9--11-11-9-9-11~------------------------------------------------|
A---------------------------------------------------------------------|
E---------------------------------------------------------------------|

e---------------------------------------------------------------------|
B-5----7----9----10----12---p12----13b-----3--------------------------|
G---------------------------------------------------------------------|
D---------------------------------------------------------------------|
A---------------------------------------------------------------------|
E---------------------------------------------------------------------|

If any corrections/comments are needed contact me rate please
Comments