Anti Heros - Fuck Hollywood Chords & Tabs

 

Fuck Hollywood Chords & Tabs

Anti Heros Chords & Tabs

Version: 1 Type: Tab 0 ratings
1 star 2 stars 3 stars 4 stars 5 stars
comments

Fuck Hollywood Tab

Band: Anti-Heros
Song: Fuck Hollywood


tabbed by jam9383@yahoo.com


Verse:

x6
e---------------------------------------------------------------------|
B---------------------------------------------------------------------|
G--------------------12-12-12-----------------------------------------|
D-12-12-12-12-12-12--12-12-12-----------------------------------------|
A-12-12-12-12-12-12--10-10-10-----------------------------------------|
E-10-10-10-10-10-10---------------------------------------------------|

x4
e---------------------------------------------------------------------|
B---------------------------------------------------------------------|
G------------------3-3-3----------------------------------------------|
D--3-3-3-3-3-3-----3-3-3----------------------------------------------|
A--3-3-3-3-3-3-----1-1-1----------------------------------------------|
E--1-1-1-1-1-1--------------------------------------------------------|

Chorus:

e---------------------------------------------------------------------|
B---------------------------------------------------------------------|
G--6---6------9--9-----6----------------------------------------------|
D--7---7------10-10----7----------------------------------------------|
A--7---7------10-10----7----------------------------------------------|
E--5---5------8--8-----5----------------------------------------------|

Solo:
[ Tab from: http://www.guitartabs.cc/tabs/a/anti_heros/fuck_hollywood_tab.html ]
e---------------------13----------------------------------------------|
B-10-10-10-10--10-10--13---10--13p12-10-9-8--6--9p8p6-9p8p6-6--9------|
G-12b------12b--------------------------------------------------------|
D---------------------------------------------------------------------|
A---------------------------------------------------------------------|
E---------------------------------------------------------------------|

e--7-10p9p7--7-9-----------------------------------------16-16--------|
B-----------------8-10-----------11--11-11-11--11-11-----16-16--------|
G--------------------------------13b-------13b-------13b--------------|
D---------------------------------------------------------------------|
A---------------------------------------------------------------------|
E---------------------------------------------------------------------|

e--7-10p9p7-7-5-7---10--10--10---10--10--10--7-9p7p5------------------|
B-------------------10b-10b-10b--10b-10b-10b---------6-9p8p6----------|
G---------------------------------------------------------------------|
D---------------------------------------------------------------------|
A---------------------------------------------------------------------|
E---------------------------------------------------------------------|

e--10--10--10------10~------------------------------------------------|
B--12b-12b-12b--12----------------------------------------------------|
G---------------------------------------------------------------------|
D---------------------------------------------------------------------|
A---------------------------------------------------------------------|
E---------------------------------------------------------------------|

any comments and corrections contact me please rate
Comments