Anti Heros - Criminal Mischief Chords & Tabs

 

Criminal Mischief Chords & Tabs

Anti Heros Chords & Tabs

Version: 1 Type: Tab 0 ratings
1 star 2 stars 3 stars 4 stars 5 stars
comments

Criminal Mischief Tab

Band:Anti-Heros
Song:Criminal Mischief


tabbed by jam9383@yahoo.com


Intro

Bass no guitar till verse
e---------------------------------------------------------------------|
B---------------------------------------------------------------------|
G---------------------------------------------------------------------|
D---------------------------------------------------------------------|
A---------------7-7-4-----7-7-4-----4-4-------4-4---------------------|
E--0----4---7----------7--------7--------7--5-----7-5---5-5-4-2-------|

e---------------------------------------------------------------------|
B---------------------------------------------------------------------|
G---------------------------------------------------------------------|
D---------------------------------------------------------------------|
A---------------------------------------------------------------------|
E--5-5-4-2----7-7-5-4---7-7-5-4---------------------------------------|

Verse

e---------------------------------------------------------------------|
B---------------------------------------------------------------------|
G--9-9-x-9--9-9-x-9----6-6-x-6--6-6-x-6-------------------------------|
D--9-9-x-9--9-9-x-9----6-6-x-6--6-6-x-6-------------------------------|
A--7-7-x-7--7-7-x-7----4-4-x-4--4-4-x-4-------------------------------|
E---------------------------------------------------------------------|

e---------------------------------------------------------------------|
B---------------------------------------------------------------------|
G---------------------------------------------------------------------|
D--7-7-x-7--7-7-x-7----9-9-x-9--9-9-x-9-------------------------------|
A--7-7-x-7--7-7-x-7----9-9-x-9--9-9-x-9-------------------------------|
E--5-5-x-5--5-5-x-5----7-7-x-7--7-7-x-7-------------------------------|

Pre-Chorus

e---------------------------------------------------------------------|
B---------------------------------------------------------------------|
G---------------------------------------------------------------------|
D--7-7-7-7-7-7-----9-9-9-9-9-9----------------------------------------|
A--7-7-7-7-7-7-----9-9-9-9-9-9----------------------------------------|
E--5-5-5-5-5-5-----7-7-7-7-7-7----------------------------------------|

Pre Chorus Lick
[ Tab from: http://www.guitartabs.cc/tabs/a/anti_heros/criminal_mischief_tab.html ]
e---------------------------------------------------------------------|
B------------------13b---------------------------15b------------------|
G--12-14p12-14p12------14-14p12---16-16p14-16p14-----16-16p14---------|
D---------------------------------------------------------------------|
A---------------------------------------------------------------------|
E---------------------------------------------------------------------|

Chorus

e---------------------------------------------------------------------|
B---------------------------------------------------------------------|
G--9-9-9-9--11-11------------9-9--------------------------------------|
D--9-9-9-9--11-11---9-9-9-9--9-9--------------------------------------|
A--7-7-7-7--9--9----9-9-9-9--7-7--------------------------------------|
E-------------------7-7-7-7-------------------------------------------|

Chorus-Verse Bridge

e---------------------------------------------------------------------|
B---------------------------------------------------------------------|
G--11-11-11-13-14-----------------------------------------------------|
D--11-11-11-13-14-----------------------------------------------------|
A--9--9--9--11-12-----------------------------------------------------|
E---------------------------------------------------------------------|

Solo

e---------------------------------------------------------------------|
B--17--14p13-14p13--17-14-13--14-12-----14-12-------------------------|
G-----------------------------------13---------13--14-14p13p11--------|
D---------------------------------------------------------------------|
A---------------------------------------------------------------------|
E---------------------------------------------------------------------|

e---------------------------------------------------------------------|
B---------------------------------------------------------------------|
G-14p13p11-14p13p11-14-13-11-16-16p14p13-16p14p13-16p14p13-16-14-13/--|
D---------------------------------------------------------------------|
A---------------------------------------------------------------------|
E---------------------------------------------------------------------|

e---------------------------------------------------------------------|
B-21-19-17-21-19-17---21-19-17-21-19-17--17-14-12-11-10--12-15-17-19/-|
G---------------------------------------------------------------------|
D---------------------------------------------------------------------|
A---------------------------------------------------------------------|
E---------------------------------------------------------------------|

any comments/corrections needed contact me, please rate
Comments