Anti Flag - Youve Got To Die For The Government Chords & Tabs

 

Youve Got To Die For The Government Chords & Tabs

Anti Flag Chords & Tabs

Version: 2 Type: Bass Tab 0 ratings
1 star 2 stars 3 stars 4 stars 5 stars
comments

Youve Got To Die For The Government Bass Tab

Anti flag
Die for your government

Intro:
G---------------------------------
D---------------------------------
A-4-4-4-4------------------------
E---------5-5-5-5-0-0-0-0-2-2-2-2

G---------------------------------
D---------------------------------
A--4-4-4-4----------7-7-----------
E----------5-5-5-5------7-7-7-7---

G---------------------------------
D---------------------------------
A-4-4-4-4------------------------
E---------5-5-5-5-0-0-0-0-2-2-2-2

G----------------------
D---------------------
A--4-4-4-4----------7-
E----------5-5-5-5----

verse: 8X
G------------------------------------
D-----2-1----2-1---------------------
A-4-4----4-2-----4------------0-2-3-4
E-------------------2-2-5-4-2--------
[ Tab from: http://www.guitartabs.cc/tabs/a/anti_flag/youve_got_to_die_for_the_government_btab_ver_2.html ]
Then 4X
G---------------------------------
D----------2-1--------------------
A-4-4-4-4-4----4-----------0-2-3-4
E----------------2-2-2-2-2--------

Then 4X
G--------------------
D--------------------
A-4-4-4-4-4-4--------
E--------------------
Go back to intro and repeat. 

Intro:

Bridge:
G-------------------------------------------------------
D-------------------------------------------------------
A-4-4-4-4-4-4-4---------------4-4-4-4-4-4-4--------7-7-
E-----------------5-5-5-5-5-5-5----------------5-5-5-----

G-----------------------------------------------
D----------------------------------------------
A-4-4-4-4-4-4-4-4--------------4-4-4-4-4-4-4--
E-----------------5-5-5-5-5-5-5----------------

	Slow
G-[----13-11-]-----13-11------13-11-
D-[11-9-----]-11-9-------11-9-------
A-----------------------------------
E-----------------------------------
Comments