Anti Flag - Youd Do The Same Chords & Tabs

 

Youd Do The Same Chords & Tabs

Anti Flag Chords & Tabs

Version: 1 Type: Bass Tab 0 ratings
1 star 2 stars 3 stars 4 stars 5 stars
comments

Youd Do The Same Bass Tab

   
SONG: YOU'D DO THE SAME
BAND:  ANTI-FLAG
TABBED BY:  DAN HAVOC, BASSIST FOR THE NEUTRALS

INTRO:        ( x WHATEVER, I DON'T WANT TO COUNT IT)
G---6-9-6----6-9-6-----------------------------77-99-|
D----------9----------9---------77-99------99---------|
A-9---------9---------------99----------77------------- |
E-------------------------77------------------------------|

VERSE:
G---------------------------------------------------------77-99-|
D---------------------------------------77-99------99----------|          (x3)
A-9-999999999999999-----99----------77--------------|
E-------------------------------77--------------------------------|

G--------------------------------------------------77-99-|
D---------------------------------77-99-----99----------|          (x1)
A-9-9-9-9-9-9----99---------77--------------|
E--------------------------77------------------------------|
[ Tab from: http://www.guitartabs.cc/tabs/a/anti_flag/youd_do_the_same_btab.html ]
CHORUS:
G------------------------------------------------------------|
D------------------------------------------------------------|
A-9-99999999999999----------------7-777777-|
E-----------------------------7-777777-----------------|

BRIDGE:
G----------------------------------------6699-11-11-9966----|
D------------------------------------99------------------------99-|          ( x3)
A--------------------------------9----------------------------------|
E-8-8888-10-10101010-------------------------------------|

G------------------------------|
D------------------------------|
A------------------------------|
E-8-8888-10-10-10-10-|

OUTRO:
G------------------------------------------------------------------------------------
D------------------------------------------------------------------------------------
A-99------------------------99-------------------12-11---99------------------------99
E-----99-10-10-99-7-9-------99-10-10-99----------------99-10-10-99-7-9-----99-10\---
I'LL LET YOU FIGURE OUT THE ORDER, I'M TOO LA

[Image]


Comments