Anti-flag - You Can Kill The Protestor But You Cant Kill The Protest Chords & Tabs

 

You Can Kill The Protestor But You Cant Kill The Protest Chords & Tabs

Anti-flag Chords & Tabs

Version: 1 Type: Bass Tab

You Can Kill The Protestor But You Cant Kill The Protest Bass Tab

   
You Can Kill The Protestor - Anti-Flag

Intro:

G|-------------------------------------------------------------8-8---8--|
D|--------------8-9-11----------------------------------------8----8---8|
A|----------9-9--------------------9-9----------------------------------|
E|-11-11-11------------9-9-9-9-9-9-----9-7-7-7-9-9-9-11-11-11-----------|

G|----------------------------------------------------|
D|--------------8-9-11----------11-9-8----------------|
A|----------9-9----------11-9-8--------11-------------|
E|-11-11-11------------9------------------7-7-7-9-9-9-|

Verse:

G|-------------6-------------------------------------------|
D|---8-6---8-6---9---------------8-6---9-8-6---------------|
A|-6-----9---------------------6-----9-------9-------------|
E|-----------------7-7-7-9-9-9-----------------7-7-7-9-9-9-|

G|-------------6-8-------------------------6---------------|
D|-------6-8-9-------------------8-6-8-9-8---9-------------|
A|-6-8-9-----------------------6---------------------------|
E|-----------------7-7-7-9-9-9-----------------7-7-7-9-9-9-|

Pre-Chorus:

G|------------------------|
D|------------------------|
A|------------------------|
E|6-6-6-6-6-6-7-7-7-9-9-9-|

Chorus:

G|-------------------------------------------------------------8-8---8--|
D|--------------8-9-11----------------------------------------8----8---8|
A|----------9-9--------------------9-9----------------------------------|
E|-11-11-11------------9-9-9-9-9-9-----9-7-7-7-9-9-9-11-11-11-----------|

G|----------------------------------------------------|
D|--------------8-9-11----------11-9-8----------------|
A|----------9-9----------11-9-8--------11-------------|
E|-11-11-11------------9------------------7-7-7-9-9-9-|

Pre-Verse:

G|------------------------------------------------------|
D|-------------------------------------9-8--------------|
A|----------9-8--------9---11--------------9-8---9---11-|
E|-11-11-11-----11-9-7---9----11-11-11---------7---9----|

Verse:
[ Tab from: http://www.guitartabs.cc/tabs/a/anti_flag/you_can_kill_the_protestor_but_you_cant_kill_the_protest_btab.html ]
G|-------------6-------------------------------------------|
D|---8-6---8-6---9---------------8-6---9-8-6---------------|
A|-6-----9---------------------6-----9-------9-------------|
E|-----------------7-7-7-9-9-9-----------------7-7-7-9-9-9-|

G|------------6-8-------------------------6---------------|
D|------6-8-9-------------------8-6-8-9-8---9-------------|
A|6-8-9-----------------------6---------------------------|
E|----------------7-7-7-9-9-9-----------------7-7-7-9-9-9-|

Pre-Chorus:

G|------------------------|
D|------------------------|
A|------------------------|
E|6-6-6-6-6-6-7-7-7-9-9-9-|

Chorus:

G|-------------------------------------------------------------8-8---8--|
D|--------------8-9-11----------------------------------------8----8---8|
A|----------9-9--------------------9-9----------------------------------|
E|-11-11-11------------9-9-9-9-9-9-----9-7-7-7-9-9-9-11-11-11-----------|

G|----------------------------------------------------|
D|--------------8-9-11----------11-9-8----------------|
A|----------9-9----------11-9-8--------11-------------|
E|-11-11-11------------9------------------7-7-7-9-9-9-|

Bridge:

G|----------------------------------------------------------|
D|----------------------------------------------------------|
A|-----9-9---------9-9-------9-9----------------------------|
E|--11-----9-9--11-----9--11-----9--6-6-6-6-6-6-7-7-7-9-9-9-|

G|------------------------------------------------------|
D|------------------------------------------------------|
A|-----9-9---------9-9-------9-9------------------------|
E|--11-----9-9--11-----9--11-----9--6-6-6-6-6-6-7-7-7-9-|

Chorus:

G|-------------------------------------------------------------8-8---8--|
D|--------------8-9-11----------------------------------------8----8---8|
A|----------9-9--------------------9-9----------------------------------|
E|-11-11-11------------9-9-9-9-9-9-----9-7-7-7-9-9-9-11-11-11-----------|

G|----------------------------------------------------|
D|--------------8-9-11----------11-9-8----------------|
A|----------9-9----------11-9-8--------11-------------|
E|-11-11-11------------9------------------7-7-7-9-9-9-|

Outro:

G|-------------------------------------------------------------------|
D|-------------------------------------------------------------------|
A|----------9-9--------------9-9--------------9-9--------------------|
E|-11-11-11-----9-9-11-11-11-----9-9-11-11-11-----9-9-6-6-6-7-7-7-9--|