Anti Flag - Underground Network Chords & Tabs

 

Underground Network Chords & Tabs

Anti Flag Chords & Tabs

Version: 1 Type: Tab 0 ratings
1 star 2 stars 3 stars 4 stars 5 stars
comments

Underground Network Tab

Great song by a great band and there wasnt a tab for it yet
so i tabbed it out i think its right

*=palm muted

Intro-Lead Guitar
e|----------------------------------------------------------------------- 
B|----------3-3-2-2----------3-3-2-2----------3-3-2-2----------3-3-5-5--- 
G|------4-4--------------4-4--------------4-4--------------4-4----------- 
D|-------------------------------------------------------------------(4x) 
A|--2-2--------------2-2------------------------------------------------- 
E|------------------------------------3-3--------------3-3--------------- 

Intro-Rythem Guitar
e|------------------|---------------------------------------------------- 
B|------------------|---------------------------------------------------- 
G|-----4---4--------|--4-4--4-4------------4-4--4-4---------------------- 
D|--5--4---4--5-----|--4-4--4-4--5-5--5-5--4-4--4-4--5-5--5-------------- 
A|--5--2---2--5-----|--2-2--2-2--5-5--5-5--2-2--2-2--5-5--5-------------- 
E|--3---------3-----|------------3-3--3-3------------3-3--3--------------
                                                        

Verse
The national media cover Clinton/Lewinski... 
e|----2------3----|----2------3------------------------------------------ 
B|------3------3--|------3------3---------------------------------------- 
G|--4-------------|--4--------------------------------------------------- 
D|--4------5------|--4------5-------------------------------------------- 
A|--2------5------|--2------5-------------------------------------------- 
E|---------3------|---------3-------------------------------------------- 

But somewhere in the night - a force is not asleep... 
e|----------------------------------------------------------------------- 
B|----------3-3-2-2---------3-3-5-5----------3-3-2-2--------------------- 
G|--4---4-4-------------4-4----------4---4-4-------------------4--------- 
D|--4---------------5----------------4----------------5---4----4--------- 
A|--2---------------5----------------2----------------5---4----2--------- 
E|------------------3---------------------------------3---2-------------- 
                                                      

e|----------------------------------------------------------------------- 
B|----------3-3-2-2----------3-3-2-2----------3-3-2-2----------3-3-5-5--- 
G|------4-4--------------4-4--------------4-4--------------4-4----------- 
D|-------------------------------------------------------------------(2x) 
A|--2-2--------------2-2------------------------------------------------- 
E|------------------------------------3-3--------------3-3--------------- 

A pirate radio voice transmits into the night... 
e|----2------3----|----2------3------------------------------------------ 
B|------3------3--|------3------3---------------------------------------- 
G|--4-------------|--4--------------------------------------------------- 
D|--4------5------|--4------5-------------------------------------------- 
A|--2------5------|--2------5-------------------------------------------- 
E|---------3------|---------3-------------------------------------------- 

And the hoax the world leaders, wanted no one to see... 
e|----------------------------------------------------------------------- 
B|----------3-3-2-2---------3-3-5-5----------3-3-2-2--------------------- 
G|--4---4-4-------------4-4----------4---4-4----------------------------- 
D|--4---------------5----------------4----------------5---4-------------- 
A|--2---------------5----------------2----------------5---4-------------- 
E|------------------3---------------------------------3---2-------------- 
                                                      *   *

Chorus
Underground Network - Alternative communication... 
e|--------------|--------------|--------------|-------------------------- 
B|--------------|--------------|--------------|-------------------------- 
G|--4-----------|--4-----------|--4-----------|--4----------------------- 
D|--4---5---4---|--4---5---4---|--4---5---4---|--4---5---4--------------- 
A|--2---5---4---|--2---5---4---|--2---5---4---|--2---5---4--------------- 
E|------3---2---|------3---2---|------3---2---|------3---2--------------- 

They try to blind us but we... 
e|------------------|------------------|--------------------------------- 
B|------------------|------------------|--------------------------------- 
G|--------------4---|--------------4---|--------------4------------------ 
D|--5---4---7---4---|--5---4---7---4---|--5---4---7---4------------------ 
A|--5---4---7---2---|--5---4---7---2---|--5---4---7---2------------------ 
E|--3---2---5-------|--3---2---5-------|--3---2----5--------------------- 

[ Tab from: http://www.guitartabs.cc/tabs/a/anti_flag/underground_network_tab.html ]
e|-----2----------------------------------------------------------------- 
B|-------3--------------3------------------------------------------------ 
G|--4---------4-------4-------------------------------------------------- 
D|--4-----------4-------------------------------------------------------- 
A|--2-------------2------------------------------------------------------ 
E|----------------------------------------------------------------------- 

Just take a look around the world and you're going to find... 
e|--------------------------------------------------------------------------- 
B|----------3-3-2-2------------3-3-2-2-----------3-3-2-2-----------3-3-5-5--- 
G|------4-4----------------4-4---------------4-4---------------4-4----------- 
D|-----------------------------------------------------------------------(4x) 
A|--2-2---------------2-2---------------------------------------------------- 
E|---------------------------------------3-3---------------3-3--------------- 


This is the solo im really not that sure about this part but listen to the song
and if u play in different rythems maybe it will sound right but i dont think
this is right
e|------------------------------------------------------------------------ 
B|--7------------------7---7---7---7---7---------------------------------- 
G|-10--a-few-times----10--10--10--10--10---------------------------------- 
D|------------------------------------------------------------------------ 
A|------------------------------------------------------------------------ 
E|------------------------------------------------------------------------ 

 
e|------------------------------------------------------------------------ 
B|------------------------------7----7----7-------10-----7---7----7------- 
G|----11-7-9-6-7-9-7-6-9-7-6-------7----7----7-------11--7------7--------- 
D|--9--------------------------------------------------------------------- 
A|------------------------------------------------------------------------ 
E|------------------------------------------------------------------------ 

 
e|------------------------------------------------------------------------ 
B|--12-------------------12------------------------------------12--------- 
G|-----11------11----11--------7--9--------------------------------------- 
D|--------12-----12------------------11--9-----------9-------------------- 
A|------------------------------------------------------------------------ 
E|------------------------------------------------------------------------ 

Underground Network, Alternative communication... 
e|--------------|--------------|--------------|--------------------------- 
B|--------------|--------------|--------------|--------------------------- 
G|--4-----------|--4-----------|--4-----------|--4------------------------ 
D|--4---5---4---|--4---5---4---|--4---5---4---|--4---5---4---------------- 
A|--2---5---4---|--2---5---4---|--2---5---4---|--2---5---4---------------- 
E|------3---2---|------3---2---|------3---2---|------3---2---------------- 


The solo at the end im really not that sure about this part but listen to the
song and if u play in different rythems maybe it will sound right but i dont
think this is right
e|--------------------------------------------------------------------7--9-10-7-
B|--7------------------8-7----------------7------------------8-7-10-8---10------
G|----7-6-7-9-7-6----------9-7-9-7-6-7------7-6-7-9-7-6-------------------------
D|----------------7-------------------------------------7-----------------------
A|------------------------------------------------------------------------------
E|------------------------------------------------------------------------------ 
Lyrics
The national media cover Clinton/Lewinsky. 
While the world's government sell out millions on the issue of free trade. 
But somewhere in the night - a force is not asleep. 
And a massive organization plans to rise up to its feet... It does it like this... 

A pirate radio voice transmits into the night. 
And from D.C. to Peking email warns of lost global rights. 
And the hoax the world's leaders, wanted no one to see. 
Comes crashing on their heads from grass roots - striking it down. 
The blows coming from the world's... 

Chorus: Underground network - Alternative communication. 
Corporate media can't keep us beat down, brainwashed, enslaved. 
Cause of our... Underground network - Alternative communication. 

They try to blind us but we... Stand up and fight! Stand up and fight! 
They try to keep us ignorant but we... Stand up and fight! Stand up and fight! 
They want to take our rights away so... Stand up and fight! Fight...! 
Just take a look around the world and you're going to find that nearly all mass 
media are owned and controlled by a handful of conservative capitalists. 
We must devise and implement alternative methods of distributing our news, 
our information, our ideas - people worldwide working together to take a stand, 
to tell the truth!
Comments