Anti Flag - Underground Network Chords & Tabs

 

Underground Network Chords & Tabs

Anti Flag Chords & Tabs

Version: 1 Type: Bass Tab 0 ratings
1 star 2 stars 3 stars 4 stars 5 stars
comments

Underground Network Bass Tab

Intro

G :---------------------------|
D :---------------------------|
A :----2~-------------2-2-2-2-|
E :-3~--------3-3-3-3---------|

Verse

G :----------------------------------------|
D :----------------------------------55-44-|
A :----------2-222-22----------2-22--------|
E :-3-333-33----------3-333-33-------------|

G :----------------------------------------|
D :----------------------------------55-44-|
A :----------2-222-22----------2-22--------|
E :-3-333-33----------3-333-33-------------|

2nd verse
G :-------------------------------------------------|
D :----55-44-55-77-55-44-22----55-44-55----55-44-22-|
A :-22----------------------22----------22----------|
E :-------------------------------------------------|

G :-------------------------------------------------|
D :----55-44-55-77-55-44-22----55-44-55----55-44-22-|
A :-22----------------------22----------22----------|
E :-------------------------------------------------|

G :-----------------|
D :----55-44--------|
A :-22-------55-2---|
E :-----------------|

G :-----------------|
D :----55-44--------|
A :-22-------55-2---|
E :-----------------|

G :-----------------|
D :----55-44--------|
A :-22-------55-2---|
E :-----------------|

Verse

G :----------------------------------------|
D :----------------------------------55-44-|
A :----------2-222-22----------2-22--------|
E :-3-333-33----------3-333-33-------------|

G :----------------------------------------|
D :----------------------------------55-44-|
A :----------2-222-22----------2-22--------|
E :-3-333-33----------3-333-33-------------|

2nd verse

G :-------------------------------------------------|
D :----55-44-55-77-55-44-22----55-44-55----55-44-22-|
A :-22----------------------22----------22----------|
E :-------------------------------------------------|

G :-------------------------------------------------|
D :----55-44-55-77-55-44-22----55-44-55----55-44-22-|
A :-22----------------------22----------22----------|
E :-------------------------------------------------|

G :-----------------|
D :----55-44--------| 3x then rest for one
A :-22-------55-2---|
E :-----------------|

Chorus

G :-------------------------------------------------|
D :----55-44-------55-44-------55-44-55-77-55-44-22-|
A :-22-------55-22-------55-22----------------------|
E :-------------------------------------------------|

G :-------------------------------------------------|
D :----55-44-------55-44-------55-44-55-77-55-44-22-|
A :-22-------55-22-------55-22----------------------|
E :-------------------------------------------------|

G :-------------------------------------------------|
D :----55-44-------55-44-------55-44-55-77-55-44-22-|
A :-22-------55-22-------55-22----------------------|
E :-------------------------------------------------|

G :-------------------------------------------------|
D :----55-44-------55-44-------55-44-55-77-55-44-22-|
A :-22-------55-22-------55-22----------------------|
E :-------------------------------------------------|

G :------------------------|
D :---55-44-------55-44----|
A :22----------22----------|
E :------------------------|

Solo

G :----44-77-66-(2x)----44-77-66----44-77-99-|
D :------------------55----------55----------|
A :-22---------------------------------------|
E :------------------------------------------|
[ Tab from: http://www.guitartabs.cc/tabs/a/anti_flag/underground_network_btab.html ]
G :----44-77-66-(2x)----44-77-66----44-77-99-|
D :------------------55----------55----------|
A :-22---------------------------------------|
E :------------------------------------------|

G :----44-77-66-(2x)----44-77-66----44-77-99-|
D :------------------55----------55----------|
A :-22---------------------------------------|
E :------------------------------------------|


G :----44-77-66-(2x)----44-77-66----44-77-99-|
D :------------------55----------55----------|
A :-22---------------------------------------|
E :------------------------------------------|

G :----44-77-66-(2x)----44-77-66----44-77-99-|
D :------------------55----------55----------|
A :-22---------------------------------------|
E :------------------------------------------|

G :----44-77-66-(2x)----44-77-66----44-77-99-|
D :------------------55----------55----------|
A :-22---------------------------------------|
E :------------------------------------------|

Chorus

G :-------------------------------------------------|
D :----55-44-------55-44-------55-44-55-77-55-44-22-|
A :-22-------55-22-------55-22----------------------|
E :-------------------------------------------------|

G :-------------------------------------------------|
D :----55-44-------55-44-------55-44-55-77-55-44-22-|
A :-22-------55-22-------55-22----------------------|
E :-------------------------------------------------|

G :-------------------------------------------------|
D :----55-44-------55-44-------55-44-55-77-55-44-22-|
A :-22-------55-22-------55-22----------------------|
E :-------------------------------------------------|

G :-------------------------------------------------|
D :----55-44-------55-44-------55-44-55-77-55-44-22-|
A :-22-------55-22-------55-22----------------------|
E :-------------------------------------------------|

G :-----------------------------|
D :-----------------------------|
A :--------222222--------222222-|
E :-333333--------333333--------|

G :-----------------------------|
D :-----------------------------|
A :--------222222--------222222-|
E :-333333--------333333--------|

Solo

G :----44-77-66-(2x)----44-77-66----44-77-99-|
D :------------------55----------55----------|
A :-22---------------------------------------|
E :------------------------------------------|

G :----44-77-66-(2x)----44-77-66----44-77-99-|
D :------------------55----------55----------|
A :-22---------------------------------------|
E :------------------------------------------|

G :----44-77-66-(2x)----44-77-66----44-77-99-|
D :------------------55----------55----------|
A :-22---------------------------------------|
E :------------------------------------------|


G :----44-77-66-(2x)----44-77-66----44-77-99-|
D :------------------55----------55----------|
A :-22---------------------------------------|
E :------------------------------------------|

G :----44-77-66-(2x)----44-77-66----44-77-99-|
D :------------------55----------55----------|
A :-22---------------------------------------|
E :------------------------------------------|

G :----44-77-66-(2x)----44-77-66----44-77-99-|
D :------------------55----------55----------|
A :-22---------------------------------------|
E :------------------------------------------|

End

G :-----------------------------|
D :-----------------------------|
A :--------222222--------222222-|
E :-333333--------333333--------|

G :-----------------------------|
D :-----------------------------|
A :--------222222--------222222-|
E :-333333--------333333--------|
Comments