Anti-flag - Turncoat Chords & Tabs

 

Turncoat Chords & Tabs

Anti-flag Chords & Tabs

Version: 1 Type: Tab 0 ratings
1 star 2 stars 3 stars 4 stars 5 stars
comments

Turncoat Tab

   
Turncoat - Anti-flag
Album: The Terror State
Tabbed By: Pat Butkiewicz (Pat@sfxrules.cjb.net)

NOTE: I had a lot of trouble with the ending. Anyone who knows the ending
correctly please Email me about it and ill add it to the tab.

Intro
E|-1-1--3-3-3-------1-1-1-------------------------------|
B|-1-1--3-3-3--3-3--3-3-3-3-3-3-33-5-55-3-33------------|
G|-2-2--4-4-4--3-3--2-2-2-3-3-3-33-5-55-3-33------------|
E|-3-3--5-5-5--3-3--0-0-0-3-3-3-33-5-55-3-33-3-3-33-33-3|
A|-3-3--5-5-5--1-1--0-0-0-1-1-1-11-3-33-1-11-3-3-33-33-3|
E|-1-1--3-3-3--------------------------------1-1-11-11-1|

Pre Verse X2
E|-----------------------------------------------------|
B|----6-5------6-5-8-----------------------------------|
G|--------5---------------7-7-----5-5-----3-3-----3-2--|
E|--3--------3--------3-3-----3-3-----3-3-----3-3------|
A|-----------------------------------------------------|
E|-----------------------------------------------------|

E|-----------------------------------------------------|
B|----6-5------6-5-8----------------------3-3-----5-5-6|
G|--------5---------------7-7-----5-5------------------|
E|--3--------3--------3-3-----3-3-----3-3-----3-3------|
A|-----------------------------------------------------|
E|-----------------------------------------------------|
[ Tab from: http://www.guitartabs.cc/tabs/a/anti_flag/turncoat_tab.html ]
Verse X4
E|----------------------------------------|
B|----------------------------------------|
G|-------------------33-3-33-3-33-3-33-3--|
E|-33333333-55555555-33-3-33-3-33-3-33-3--|
A|-33333333-55555555-11-1-11-1-11-1-11-1--|
E|-11111111-33333333----------------------|
   P.M..... ........ ..   ..   ..   ..

Chorus X2
E|-1-1--3-3-3-------1-1-1-------------------------------|
B|-1-1--3-3-3--3-3--3-3-3-3-3-3-33-5-55-3-33------------|
G|-2-2--4-4-4--3-3--2-2-2-3-3-3-33-5-55-3-33------------|
E|-3-3--5-5-5--3-3--0-0-0-3-3-3-33-5-55-3-33-3-3-33-33-3|
A|-3-3--5-5-5--1-1--0-0-0-1-1-1-11-3-33-1-11-3-3-33-33-3|
E|-1-1--3-3-3--------------------------------1-1-11-11-1|

Post Chorus
E|-1-1-11-11-1-3-3-33-33-3------------------------|
B|-1-1-11-11-1-3-3-33-33-3------------------------|
G|-2-2-22-22-2-4-4-44-44-4-7-7-77-77-7-5-5-55-55-5|
E|-3-3-33-33-3-5-5-55-55-5-7-7-77-77-7-5-5-55-55-5|
A|-3-3-33-33-3-5-5-55-55-5-5-5-55-55-5-3-3-33-33-3|
E|-x-x-xxxxx-1-3-3-33-33-3------------------------|

E|-------------------------------------------------------------------|
B|-------------------------------------------------------------------|
G|------------------------------------------77777777-53-53-53-53-53--|
E|-33-3-33-3-33-3-33-3-55-5-55-5-55-5-55-5--77777777-53-53-53-53-53--|
A|-33-3-33-3-33-3-33-3-55-5-55-5-55-5-55-5--55555555-31-31-31-31-31--|
E|-11-1-11-1-11-1-11-1-33-3-33-3-33-3-33-3---------------------------|
   PM   **   **   **   **   **   **   **    ******

Chorus X6
E|-1-1--3-3-3-------1-1-1-------------------------------|
B|-1-1--3-3-3--3-3--3-3-3-3-3-3-33-5-55-3-33------------|
G|-2-2--4-4-4--3-3--2-2-2-3-3-3-33-5-55-3-33------------|
E|-3-3--5-5-5--3-3--0-0-0-3-3-3-33-5-55-3-33-3-3-33-33-3|
A|-3-3--5-5-5--1-1--0-0-0-1-1-1-11-3-33-1-11-3-3-33-33-3|
E|-1-1--3-3-3--------------------------------1-1-11-11-1|

End On
e----|
B----|
G-5--|
E-5--|
A-3--|
E----|
Comments