Anti-flag - Turncoat Chords & Tabs

 

Turncoat Chords & Tabs

Anti-flag Chords & Tabs

Version: 2 Type: Bass Tab

Turncoat Bass Tab

Tabbed by Carlos Alberto T.L. 
(Any comments or corrections to carlosalbertotl90@hotmail.com)
This is my fisrt tab, enjoy it.

Intro
G|----------------|
D|----------------|
A|----------------|
E|-111111111------|

Intro 2nd part

G|------------------------------------------------------------|
D|------------------------------------------------------------|
A|------------------------------------------------------------|
E|-11111111-3333333--------66-55-33-55-33-11-33-11------------|

G|------------------------------------------------------------|
D|----------------------------------------00-------22---------|
A|-------------------------------11-00-11----11-33----33------|
E|-11111111-3333333-------------------------------------------|

Verse

G|-------------------------------------------------------------|
D|-------------------------------------------------------------|
A|------------------------------8----8----8----8---------------|   x3
E|-11111111-33333333---------66---66---66---66---6-------------| 


G|-------------------------------------------------------------------------|
D|-------------------------------------------------------------------------|
A|-------------------------------------------------------------------------|
E|-11111111-333333333-6666-5555-3333-1111----------------------------------|

Chorus x2

G|------------------------------|
D|------------------------------|
A|------------------------------|
E|-1-1-333-6-6-555---10/1-------|
            
               
G|------------------------------------------|
D|------------------------------------------|
A|----------------------88---88---88---8----|
E|-66666666-5555-3333-6----6----6----6---66-|

G|------------------------------|
D|------------------------------|
A|------------------------------|
E|-1-1-333-6-6-555---10/1-------|
            
               
G|------------------------------------------|
D|------------------------------------------|
A|------------------------------------------|
E|-66666666-5555-3333-1~~~~~~~~~~~----------|

Acoustic Guitar Part

Bridge
[ Tab from: http://www.guitartabs.cc/tabs/a/anti_flag/turncoat_btab_ver_2.html ]
G|----------------------------------------------------------------|
D|----------------------------------------------------------------|
A|--------------------------55555555555---------------------------|
E|-111111111111-33333333333---------------------------------------|

This Part speeds up

G|--------------------------------------|
D|--------------------------------------|
A|-3~1~3~1~-3-1-3-1-3-1-3-1-3-----------|
E|--------------------------------------|

Chorus #2

G|------------------------------|
D|------------------------------|
A|------------------------------|
E|-1-1-333-6-6-555---10/1-------|
            
               
G|------------------------------------------|
D|------------------------------------------|
A|--------------------88---88---88---8------|
E|-666666-5555-3333-6----6----6----6---66---|

G|--------------------------------3-1-0----------------|
D|-----3-1-0---------0-1-3------------3----------------|
A|------------3-----3--------1-1----------000-00-4-5---|
E|-1-1---------333-------------------------------------|

G|------------------------------------------|
D|------------------------------------------|
A|------------------------------------------|
E|-66666666-5555-3333-----------------------|

Outro

G|------------------------------------------------------------|
D|------------------------------------------------------------|
A|------------------------------------------------------------|
E|-11111111-3333333--------66-55-33-55-33-11-33-11------------|

G|------------------------------------------------------------|
D|----------------------------------------00-------22---------|
A|-------------------------------11-00-11----11-33----33------|
E|-11111111-3333333-------------------------------------------|

G|------------------------------------------------------------|
D|-33333333-55555555-88-77-55-33-55-33-22-33------------------|
A|------------------------------------------------------------|
E|------------------------------------------------------------|

G|----------------------------------|
D|-33333333-55555555----------------|
A|----------------------------------|
E|----------------------------------|

Outro part #2

G|-1010-99-77-55-33-22-00-22-------------------------|
D|---------------------------------------------------|
A|---------------------------------------------------|
E|---------------------------------------------------|    x3

G|--------------------|
D|--------------------|
A|-111111111----------|