Anti Flag - Tearing Everyone Down Chords & Tabs

 

Tearing Everyone Down Chords & Tabs

Anti Flag Chords & Tabs

Version: 1 Type: Tab 0 ratings
1 star 2 stars 3 stars 4 stars 5 stars
comments

Tearing Everyone Down Tab

ANTI-FLAG - Tearing Everyone Down



-----------------|------------------------------------|--------------|---------|---
-----------------|------------------------------------|--------------|---------|---
-----------------|-6-6-6-4-6vvv-6-6-8-9-8-6-8-4-4-4-4-|-6------------|-9---6---|---
-----6-----6---6-|------------------------------------|-6-7-9-4------|-9-9-6-7-|---
-4-4---4-4---4---|------------------------------------|-4-7-9-4------|-7-9-4-7-|---
-----------------|------------------------------------|---5-7-2------|---7---5-|---
 Intro 1           Intro 2                              Verse/Chorus   Verse    

----------------------------------------------9-------------------------------
------------------------------------------------9-----------------------------
-13-13-13-11-13-13-13-11-11-13-11-9-11-9----------11-9----9-11br-11br-11br----
-------------------------------------------------------11---------------------
------------------------------------------------------------------------------
------------------------------------------------------------------------------
 Solo (probably not correct)                                                  

-12-p9---12-p9---12-p9---12-p9---12-p9---12-p9---12-p9---12-p9---12-p9---12---
-------9-------9-------9-------9-------9-------9-------9-------9-------9------
------------------------------------------------------------------------------
------------------------------------------------------------------------------
------------------------------------------------------------------------------
------------------------------------------------------------------------------
                                                                              
[ Tab from: http://www.guitartabs.cc/tabs/a/anti_flag/tearing_everyone_down_tab.html ]
-p9---12-p9---12-p9----12b-12b-12bbbb-----------------------------------------
----9-------9-------9-------------------------9---------9---------9-----------
--------------------------------------11b-11b---11b-11b---11b-11b---11b-11b---
------------------------------------------------------------------------------
------------------------------------------------------------------------------
------------------------------------------------------------------------------
                                                                              

------------------|-----------------------------------------------------------
-9-13b-13b-13bbbb-|-----------------------------------------------------------
------------------|-----------------------------------------------------------
------------------|-----------------------------------------------------------
------------------|-----------------------------------------------------------
------------------|-----------------------------------------------------------
                                                                              

Anti Flag

01  Tearing Everyone Down 

I thought I'd begun to see a change
But the more things change, the more they stay the same
Back stabbing and name calling, the trade marks of your act
You talk and talk of unity, but divide with your attacks

(You say), "I'd like to see a change,
            I'd like to see a change,
            I'd like to see a change, but I'm too busy...
            Tearing everyone down..."

All us kids, we try to make a change
Some kids start a band, others start a zine
YOU, no matter what your path
You throw a curve in what could be achieved,
Then give up and move onto some other thing

(You say), "I'd like to see a change,
            I'd like to see a change,
            I'd like to see a change, but I'm too busy...
            Tearing everyone down..."

Take a break
from your fights,
try to open up your mind tonight
When you feel
that's complete
then we can tackle this society!

You may not like
everything in life I do...
But that doesn't mean,
I'm not trying to change
the same problems as you

(You say), "I'd like to see a change,
            I'd like to see a change,
            I'd like to see a change, but I'm too busy...
            Tearing everyone down..."     

Comments