Anti Flag - Tearing Everyone Down Chords & Tabs

 

Tearing Everyone Down Chords & Tabs

Anti Flag Chords & Tabs

Version: 2 Type: Bass Tab 0 ratings
1 star 2 stars 3 stars 4 stars 5 stars
comments

Tearing Everyone Down Bass Tab

Anti-Flag
Tearing Everyone Down
tabbed by: intense@westol.com


Intro/Verse:
-----------------------------------------------------
-----6-4-3-------------------4-2-------------2-2-4-4-
-4-4-----------7-7-5-5-4-4-2-----4-2-----4-4---------
-----------5-5-----------------------2-2-------------

2nd Line of Verse:
---------------------------------------------------------
-----6-4-3-------------------4-4-2-2-----4-4-2-2-1-1-----
-4-4-----------7-7-5-5-4-4-2---------4-4-------------4-4-
-----------5-5-------------------------------------------

3rd Line of Verse:
-6-6-6-6-6-------------------------------------------
-----------------------------4-2-------------2-2-4-4-
----------------7-7-5-5-4-4-2-----4-2-----4-4--------
-----------5-5-----------------------2-2-------------

Pre Chorus:
----------------------------------------------------
-------9-9-9----------------------------------7-7-7-
-7-7-7-------------6-6-6-------11-11-11-------------
-------------7-7-7-------9-9-9----------5-5-5-------
[ Tab from: http://www.guitartabs.cc/tabs/a/anti_flag/tearing_everyone_down_btab_ver_2.html ]
----------------------------------------------------------------------------
-------9-9-9---------------6-6-4-4----6-6-4-4-----6-6-4-4-------------------
-7-7-7-------------6-6-6-4---------6----------6-----------6---4---4---4---7-
-------------7-7-7-------------------5----------5-----------5---5---5---5---

Chorus:
-------------------------------------------------
-------------------------------------------------
-4-4-4-4-4-4-------------2-2-2-2-2-2-------------
-------------5-5-5-5-5-5-------------2-2-2-2-2-2-

-------------------------4-4-4-4-4-4-------------
-------------7-7-7-7-7-7-------------4-4-4-4-4-4-
-4-4-4-4-4-4-------------------------------------
-------------------------------------------------

Bridge:
-------------------------------4------
--------------------------7---------4-
-4---------2---------4----------------
------5---------2---------------------

Guitar lead if you would need it for some reason:
-----------------------------
-------------------5-4-2-----
-6-6-6-6-4-6-6-4-6-------2-4-
-----------------------------
-----------------------------
-----------------------------

Comments