Anti Flag - Summer Squatter Go Home Chords & Tabs

 

Summer Squatter Go Home Chords & Tabs

Anti Flag Chords & Tabs

Version: 1 Type: Bass Tab 0 ratings
1 star 2 stars 3 stars 4 stars 5 stars
comments

Summer Squatter Go Home Bass Tab

ANTI-FLAG
Summer Squatter Go Home
tabbed by: intense@westol.com

Intro:
G-----10-8-7------------10-8-7------------
D-8-8--------10-8-6-8-8--------10-8-6--
A-----------------------------------------
E-----------------------------------------

G---------------------8-6-5-------
D-----8-6-5-6-8-5-6-6-------8-6-5-
A-6-6-----------------------------
E---------------------------------

Verse:
G-------------------------
D-8-8-8-8-8-8-------6-6-6-
A-------------6-6-6-------
E-------------------------

Chorus:
G-------------------
D-------------------
A-6--6--------------
E------4--4-6-6-6-6-
[ Tab from: http://www.guitartabs.cc/tabs/a/anti_flag/summer_squatter_go_home_btab.html ]
Bridge:
G-----10-8-7-8--8-8-------
D-8-8---------------8-6-8-
A------------------------- (16 times)
E-------------------------

G--------6-6--6-8-8--8-10-10--10--------6-6--6-8-8--8-10-10--10-
D-8-8--8-------------------------8-8--8-------------------------
A---------------------------------------------------------------
E---------------------------------------------------------------

G-----6-6-8-8-10-10-----6-6-8-8-10-10-
D-8-8---------------8-8---------------
A-------------------------------------
E-------------------------------------

G---6-8-10---6-8-10---6-8-10---6-8-10-
D-8--------8--------8--------8--------
A-------------------------------------
E-------------------------------------


Comments