Anti-flag - Spazs House Destruction Party Chords & Tabs

 

Spazs House Destruction Party Chords & Tabs

Anti-flag Chords & Tabs

Version: 1 Type: Tab 0 ratings
1 star 2 stars 3 stars 4 stars 5 stars
comments

Spazs House Destruction Party Tab

-------------------------------------------------------------------------------
	            SPAZ'S HOUSE DESTRUCTION PARTY - Anti-Flag
-------------------------------------------------------------------------------
Added By Mikhailo


M- palm mute
*- play a few times

intro   0:01
e|---------------------------------------------------------------------------|
B|---------------------------------------------------------------------------|
G|-11---------------11-------------M-----------------------------------------|
D|-11--11---6---8---11--11---6---8-8-----------------------------------------|
A|--9--11---6---8----9--11---6---8-8-----------------------------------------|
E|------9---4---6--------9---4---6-6-----------------------------------------|

riffA   0:15
e|---------------------------------------------------------------------------|
B|----*----------------*-----------------------------------------------------|
G|--11----*---*---*--11-----*--MM---MM---MM---MM-----------------------------|
D|--11--11---6---8---11---11---66-6-66-6-66-6-66-6---------------------------|
A|---9--11---6---8----9---11---66-6-66-6-66-6-66-6---------------------------|
E|-------9---4---6---------9---44-4-44-4-44-4-44-4---------------------------|
[ Tab from: http://www.guitartabs.cc/tabs/a/anti_flag/spazs_house_destruction_party_tab.html ]
verse   0:30
e|----*---*---*---*----------------------------------------------------------|
B|---M---M---M---M------X2-----*----*----*---*-----X2------------------------|
G|--66--88--66--88-888--------M----M----M---M--------------------------------|
D|--66--88--66--88-888-------88---66---44--66--------------------------------|
A|--44--66--44--66-666-------88---66---44--66--------------------------------|
E|---------------------------66---44---22--44--------------------------------|

chorus   1:01                  
e|------------------------------------------------------------------------|
B|----*------------*---------------*------*---*---*-----------------------|
G|--11---*--*--*-11---*----------11---*-13--15--11---*--*-----------------|
D|--11-11--6--8--11-11--8x6x4x3--11-11--13--15--11-11--6--8x8x8x8---------|
A|---9-11--6--8---9-11--8x6x4x3---9-11--11--13---9-11--6--8x8x8x8---------|
E|------9--4--6------9--6x4x2x1------9--------------9--4--6x6x6x6---------|

then play riffA, verse, and chorus

interlude  2:20
e|---------------------------------------------------------------------------|
B|----*----------------------------------------------------------------------|
G|---6----*----*---*---------------------------------------------------------|
D|---6---8----4---4----------------------------------------------------------|
A|---4---8----4---4----------------------------------------------------------|
E|-------6----2---2----------------------------------------------------------|

then play chorus and thats it

===============================================================================
Comments