Anti Flag - Spaz House Destruction Party Chords & Tabs

 

Spaz House Destruction Party Chords & Tabs

Anti Flag Chords & Tabs

Version: 1 Type: Tab 0 ratings
1 star 2 stars 3 stars 4 stars 5 stars
comments

Spaz House Destruction Party Tab

Anti-flag/Spaz house destruction party

Intro
e|---------------------------------------------|
B|---------------------------------------------|
G|--11---6-----------11---6--------------------|
D|--11---6---6---8---11---6---6-6-6-6-6-6-6-6--|
A|--9----4---6---8---9----4---6-6-6-6-6-6-6-6--|
E|-----------4---6------------4-4-4-4-4-4-4-4--|

Riff
e|---------------------------------------|
B|---------------------------------------|
G|--11-11-11-11-6-6-6-6------------------|
D|--11-11-11-11-6-6-6-6-6-6-6-6-8-8-8-8--|
A|--9--9--9--9--4-4-4-4-6-6-6-6-8-8-8-8--|
E|----------------------4-4-4-4-6-6-6-6--|

e|---------------------------------------|
B|---------------------------------------|
G|--11-11-11-11-6-6-6-6------------------|
D|--11-11-11-11-6-6-6-6-6-6-6-6-6-6-6-6--|
A|--9--9--9--9--4-4-4-4-6-6-6-6-6-6-6-6--|
E|----------------------4-4-4-4-4-4-4-4--|

Verse (palm muted)
e|---------------------------------------------------------------|
B|---------------------------------------------------------------|
G|--11-11-11-11-6-6-6-6---------6-6-6-6---------6-6-6-6----------|
D|--11-11-11-11-6-6-6-6-4-4-4-4-6-6-6-6-4-4-4-4-6-6-6-6-6-6-6-6--|
A|--9--9--9--9--4-4-4-4-4-4-4-4-4-4-4-4-4-4-4-4-4-4-4-4-6-6-6-6--|
E|----------------------2-2-2-2---------2-2-2-2---------4-4-4-4--|
[ Tab from: http://www.guitartabs.cc/tabs/a/anti_flag/spaz_house_destruction_party_tab.html ]
Pre-Chorus (palm muted)
e|-------------------------------------------------------------------|
B|-------------------------------------------------------------------|
G|--------------------------------------------------6-6-6-6-6-6-6-6--|
D|--8-8-8-8-8-8-8-8-6-6-6-6-6-6-6-6-4-4-4-4-4-4-4-4-6-6-6-6-6-6-6-6--|
A|--8-8-8-8-8-8-8-8-6-6-6-6-6-6-6-6-4-4-4-4-4-4-4-4-4-4-4-4-4-4-4-4--|
E|--6-6-6-6-6-6-6-6-4-4-4-4-4-4-4-4-2-2-2-2-2-2-2-2------------------|

e|-------------------------------------------------------------------|
B|-------------------------------------------------------------------|
G|-------------------------------------------------------------------|
D|--8-8-8-8-8-8-8-8-6-6-6-6-6-6-6-6-4-4-4-4-4-4-4-4-6-6-6-6-6-6-6-6--|
A|--8-8-8-8-8-8-8-8-6-6-6-6-6-6-6-6-4-4-4-4-4-4-4-4-6-6-6-6-6-6-6-6--|
E|--6-6-6-6-6-6-6-6-4-4-4-4-4-4-4-4-2-2-2-2-2-2-2-2-4-4-4-4-4-4-4-4--|

Chorus
e|-----------------------------------------------------------|
B|-----------------------------------------------------------|
G|----------6-6-6-6-------------------------6-6-6-6-------8--|
D|--4-4-4-4-6-6-6-6-6-6-6-6-8-8-8-8-4-4-4-4-6-6-6-6-6-4-3-8--|
A|--4-4-4-4-4-4-4-4-6-6-6-6-8-8-8-8-4-4-4-4-4-4-4-4-6-4-3-6--|
E|--2-2-2-2---------4-4-4-4-6-6-6-6-2-2-2-2---------4-2-1-6--|

e|-------------------------------------------------------------------|
B|-------------------------------------------------------------------|
G|----------6-6-6-6-------------------------6-6-6-6------------------|
D|--4-4-4-4-6-6-6-6-6-6-6-6-8-8-8-8-4-4-4-4-6-6-6-6-6-6-6-6-6-6-6-6--|
A|--4-4-4-4-4-4-4-4-6-6-6-6-8-8-8-8-4-4-4-4-4-4-4-4-6-6-6-6-6-6-6-6--|
E|--2-2-2-2---------4-4-4-4-6-6-6-6-2-2-2-2---------4-4-4-4-4-4-4-4--|

Bridge
e|-----------------------------------|
B|-----------------------------------|
G|--6-6-6-6--------------------------|
D|--6-6-6-6-8-8-8-8-4-4-4-4-4-4-4-4--|
A|--4-4-4-4-8-8-8-8-4-4-4-4-4-4-4-4--|
E|----------6-6-6-6-2-2-2-2-2-2-2-2--|
Comments