Anti Flag - Safe Tonight Chords & Tabs

 

Safe Tonight Chords & Tabs

Anti Flag Chords & Tabs

Version: 2 Type: Bass Tab 0 ratings
1 star 2 stars 3 stars 4 stars 5 stars
comments

Safe Tonight Bass Tab

Song: safe tonight
Band: ANTI-FLAG
Album: die for your government
tabbed by: Justin
                            the / means keep playing the note until the
switch.
                            enjoy!
 Verse

G:------------------6-4-6-------------------------------------
D:--------------------------6-----------------------------------
A:--6/---2/---4-------------------4-6-4----------------------
E:---------------------------------------------------------------
[ Tab from: http://www.guitartabs.cc/tabs/a/anti_flag/safe_tonight_btab_ver_2.html ]
chorus
G:---------------------------------------------------------------
D:---------------------------------------------------------------
A:--6/---2/---4/-----------------------------------------------
E:---------------4/---------------------------------------------

bridge
G:---------------------------------------------------------------
D:---------------------------------------------------------------
A:--2/---6/---2/---6/---4/---2/---1/---4/---2/---1/------
E:---------------------------------------------------------------

guitar intro
verse 6x
chorus 2x                                                  corrections,
questions to
verse 6x                                                      OuiOui7@aol.com
chorus 2x                                             
bridge 1x
chorus 2x
verse 4x
chorus 4x
verse 2x


Comments