Anti-flag - Right To Choose Chords & Tabs

 

Right To Choose Chords & Tabs

Anti-flag Chords & Tabs

Version: 2 Type: Tab 0 ratings
1 star 2 stars 3 stars 4 stars 5 stars
comments

Right To Choose Tab

Intro:
e|-------------------------------------------------------------
B|-------------------------------------------------------------
G|-6-6-6-6-9-9-9-9-9-9-9-9-9-----------------------------------
D|-6-6-6-6-9-9-9-9-9-9-9-9-9-----------------------------------
A|-4-4-4-4-7-7-7-7-6-6-6-6-7-----------------------------------
E|-------------------------------------------------------------

e|-------------------------------------------------------------
B|-------------------------------------------------------------
G|-6-6-6-6-9-9-9-9-9-9-9-9-9-----------------------------------
D|-6-6-6-6-9-9-9-9-9-9-9-9-9-----------------------------------
A|-4-4-4-4-7-7-7-7-6-6-6-6-7-----------------------------------
E|-------------------------------------------------------------

Verse:
e|-------------------------------------------------------------
B|-------------------------------------------------------------
G|--6-6--6--6--9-9--9--9--9-9--9--9--9-9--9--9-----------------
D|--6-6--6--6--9-9--9--9--9-9--9--9--9-9--9--9-----------------
A|--4-4--4--4--7-7--7--7--6-6--6--6--7-7--7--7-----------------
E|-------------------------------------------------------------

e|-------------------------------------------------------------
B|-------------------------------------------------------------
G|--6-6--6--6--9-9--9--9--9-9--9--9--9-9-9-9-9-9-9-9-----------
D|--6-6--6--6--9-9--9--9--9-9--9--9--9-9-9-9-9-9-9-9-----------
A|--4-4--4--4--7-7--7--7--6-6--6--6--7-7-7-7-7-7-7-7-----------
E|-------------------------------------------------------------


Pre-Chorus (your wave your flag.....):
e|-------------------------------------------------------------
B|-------------------------------------------------------------
G|--6----------------------------------------------------------
D|--6---------------------------------------Let-it-Ring--------
A|--4----------------------------------------------------------
E|-------------------------------------------------------------

Chorus(twice):

e|-------------------------------------------------------------
B|-------------------------------------------------------------
G|--6-6-6-6-9-9-9-9-9-9-9-9--9---------------------------------
D|--6-6-6-6-9-9-9-9-9-9-9-9--9---------------------------------
A|--4-4-4-4-7-7-7-7-6-6-6-6--7---------------------------------
E|-------------------------------------------------------------
[ Tab from: http://www.guitartabs.cc/tabs/a/anti_flag/right_to_choose_tab_ver_2.html ]
e|-------------------------------------------------------------
B|-------------------------------------------------------------
G|--6-6-6-6-9-9-9-9-9-9-9-9--10--------------------------------
D|--6-6-6-6-9-9-9-9-9-9-9-9--10--------------------------------
A|--4-4-4-4-7-7-7-7-6-6-6-6--8---------------------------------
E|-------------------------------------------------------------


Bridge:
e|-------------------------------------------------------------
B|-------------------------------------------------------------
G|--6----------------------------------------------------------
D|--6---------------------------------------Let-it-Ring--------
A|--4----------------------------------------------------------
E|-------------------------------------------------------------

(It seems today, so be yourself....)
e|------------------------------------------------------------
B|------------------------------------------------------------
G|-6--6--6--6--9--9--9--9--9--9--9--9--9--9--9--9-------------
D|-6--6--6--6--9--9--9--9--9--9--9--9--9--9--9--9-------------
A|-4--4--4--4--7--7--7--7--6--6--6--6--7--7--7--7-------------
E|------------------------------------------------------------

(If you were half..)
e|------------------------------------------------------------
B|------------------------------------------------------------
G|-6--6--6--6--9--9--9--9--9--9--9--9--9--9--9--9-------------
D|-6--6--6--6--9--9--9--9--9--9--9--9--9--9--9--9-------------
A|-4--4--4--4--7--7--7--7--6--6--6--6--7--7--7--7-------------
E|------------------------------------------------------------

 -----------------------------------------------
 -----------------------------------------------
 -6-6--6-6--6-6--6-6-6-6------------------------
 -6-6--6-6--6-6--6-6-6-6------------------------
 -4-4--4-4--4-4--4-4-4-4------------------------
 -----------------------------------------------


(You wave your flag....)
e|------------------------------------------------------------
B|------------------------------------------------------------
G|-6--6--6--6--9--9--9--9--9--9--9--9--9--9--9--9-------------
D|-6--6--6--6--9--9--9--9--9--9--9--9--9--9--9--9-------------
A|-4--4--4--4--7--7--7--7--6--6--6--6--7--7--7--7-------------
E|------------------------------------------------------------



e|------------------------------------------------------------
B|------------------------------------------------------------
G|-6--6--6--6--9--9--9--9--9--9--9--9--9--9--9--9-------------
D|-6--6--6--6--9--9--9--9--9--9--9--9--9--9--9--9-------------
A|-4--4--4--4--7--7--7--7--6--6--6--6--7--7--7--7-------------
E|------------------------------------------------------------

 -----------------------------------------------
 -----------------------------------------------
 -6-6--6-6--6-6--6-6-6-6------------------------
 -6-6--6-6--6-6--6-6-6-6------------------------
 -4-4--4-4--4-4--4-4-4-4------------------------
 -----------------------------------------------
Comments