Anti Flag - Punk By The Book Chords & Tabs

 

Punk By The Book Chords & Tabs

Anti Flag Chords & Tabs

Version: 2 Type: Bass Tab 0 ratings
1 star 2 stars 3 stars 4 stars 5 stars
comments

Punk By The Book Bass Tab

   
ANTI-FLAG
Punk By The Book
tabbed by: intense@westol.com

Intro/verse:
---------------------------------------------------------------
---------------------------------------------------------------
-4-4-4-4-4-6-6-6-6-6-2-2-2-2-2-4-4-4-4-4-2-4-4-4-4-4-6-6-6-6-6-
---------------------------------------------------------------

-----------------4-4-2-2---------
-----4-4-----4-4---------4-4-----
-2-2-----2-2-----------------2-2-
---------------------------------

Chorus:
G-----------------------------------------------
D---------------------3-3-----4-4-3-3-----------
A-----------6-4-4-6-6-----6-6---------6-6-4-4-6-
E-6-6-6-6-6-------------------------------------

G-------------------------------------
D-------------------------------------
A-----------6-4-4-4-4-4-4-2-4-4-4-4-6-
E-6-6-6-6-6---------------------------

G-----------------------------------------------
D---------------------3-3-----4-4-3-3-----------
A-----------6-4-4-6-6-----6-6---------6-6-4-4-6-
E-6-6-6-6-6-------------------------------------

G------------------------6-6-4---
D----------------------6-------6-
A-----------6-4--4--4------------
E-6-6-6-6-6----------------------
[ Tab from: http://www.guitartabs.cc/tabs/a/anti_flag/punk_by_the_book_btab_ver_2.html ]
Pre 2nd verse:
---------------------------------------------------------------
---------------------------------------------------------------
-4-4-4-4-4-6-6-6-6-6-2-2-2-2-2-4-4-4-4-4-2-4-4-4-4-4-6-6-6-6-6-
---------------------------------------------------------------

-----------------------------------
---7-7-----7-7-----9-9-7-7-----7---
-------9-9-----9-9---------7h9---9-
-7---------------------------------

---------------------------------------------------------------
---------------------------------------------------------------
-4-4-4-4-4-6-6-6-6-6-2-2-2-2-2-4-4-4-4-4-2-4-4-4-4-4-6-6-6-6-6-
---------------------------------------------------------------

-------
-----9-
---9---
-7-----

ending:
---------------------------------------------------------
---------------------------------------------------------
-4-6-4-6-4-6-4-6-4-6-4-6-4-6-4-6-4-2-2-2-2-2-2-2-2-------
---------------------------------------------------------

Intro: C# D# B# C# B# C#
       C# D# B#
Verse: same as intro
Chorus: A# D# C# D#
Ending: C# D# C# D# C# D# B#
Comments