Anti-flag - Post War Breakout Chords & Tabs

 

Post War Breakout Chords & Tabs

Anti-flag Chords & Tabs

Version: 1 Type: Bass Tab 0 ratings
1 star 2 stars 3 stars 4 stars 5 stars
comments

Post War Breakout Bass Tab

   
-------------------------------------------------------------------------------
			     POST WAR BREAKOUT - Anti flag
-------------------------------------------------------------------------------

Ok i'll be honest, theres parts of this tab that im less than sure about, but the
fills n stuff #2 plays are just TOO HARD!!!! When i went to see Anti flag, they
played this song, and i tried to keep looking at what #2 was playing, but (as anyone
who's seen them live will know), its fairly hard to concentrate on anything but rockin
out. Anyway, I got a fairly good idea of what he was playing and when i got home i tried
to work it out, and here's the result. Any compliments, criticisms, or if you're chris#2
and you want to tell me what you really play in this song, e-mail me at:  nexus1101@hotmail.co.uk  

Tabbed By : Twig

Tuning: Standard 4 string (EADG)

-No bass until about 9 seconds in-

Intro [0:09 - 0:36]
G|---------------------1--------------------------|
D|-------1--1-1-3--3-3---4-1-3-------1--1-1-------|
A|-1--1-1----------------------1--1-1-------------|
E|------------------------------------------1r/9\-|

G|----------------------------------------------------------------|
D|--------------3-3-3-3-3-3-3-6--------1-1-1-1-3--3--3--3---------|
A|1-1-1-1-----------------------1-1-1-1-------------------4-3-2-0-|
E|-------4-4-4-4--------------------------------1--1--1--1--------|

G|---------------------------------------------------|
D|--------------3-3-3-3-3-3-3-6--------1-1-1-1-------|
A|1-1-1-1-----------------------1-1-1-1--------------|
E|-------4-4-4-4-------------------------------1r/9\-|


Verse 1 (Im not even gonna try tabbing the rhythm cos its way too funky)
[0:36 - 0:55]
G|--------------------1-----------------------------|
D|------1--1-1-3--3-3--4-1-3-------1--1-1-----------|
A|1--1-1---------------------1--1-1-----------------|    Play twice
E|---------------------------------------1--1-1-4-4-|


Bridge 1  [0:55 - 1:04]
G|------------------------------------------------------|
D|--------------------------4---4-4-4-4-3-4-3-4-3-4-3-4-|
A|-----------------------2/4----------------------------|
E|-2---2-2-2-2-1---1-1-1--------------------------------|


Chorus1  [1:04 - 1:22]
G|----------------------------------------------------------------|
D|--------------3-3-3-3-3-3-3-6--------1-1-1-1-3--3--3--3---------|
A|1-1-1-1-----------------------1-1-1-1-------------------4-3-2-0-|
E|-------4-4-4-4--------------------------------1--1--1--1--------|
[ Tab from: http://www.guitartabs.cc/tabs/a/anti_flag/post_war_breakout_btab.html ]
G|---------------------------------------------------|
D|--------------3-3-3-3-3-3-3-6--------1-1-1-1-------|
A|1-1-1-1-----------------------1-1-1-1--------------|
E|-------4-4-4-4-------------------------------1r/9\-|


Verse 2 (Mostly just drums)  [1:22 - 1:40]
G|-----------------------------------------------------------------|
D|-----------------------------------------------------------------|
A|-1r-------------------1-1-1-1m-1r-------1-1-1-1m-1r--------------|
E|---------------------------------------------------------6-5-4-3-|


Bridge 2   [1:40 - 1:53]
G|----------------------------------------------------------------------|
D|--------------------------4---4-4-4-4-3-4-3-4-3-4-3-4-3-4-3-4-3-4-3-4-|
A|-----------------------2/4--------------------------------------------|
E|-2---2-2-2-2-1---1-1-1------------------------------------------------|


Chorus 3  [1:53 - 2:10]
G|----------------------------------------------------------------|
D|--------------3-3-3-3-3-3-3-6--------1-1-1-1-3--3--3--3---------|
A|1-1-1-1-----------------------1-1-1-1-------------------4-3-2-0-|
E|-------4-4-4-4--------------------------------1--1--1--1--------|

G|------------------------------------------------------------|
D|--------------3-3-3-3-3-3-3-6--------1-1-1-1----------------|
A|1-1-1-1-----------------------1-1-1-1-----------------------|
E|-------4-4-4-4-------------------------------1-1-1-1-1-1-1-1|


Guitar solo  [2:10 - 2:29]
G|----------------------------------------------------------------|
D|--------------3-3-3-3-3-3-3-6--------1-1-1-1-3--3--3--3---------|
A|1-1-1-1-----------------------1-1-1-1-------------------4-3-2-0-|
E|-------4-4-4-4--------------------------------1--1--1--1--------|

G|------------------------------------------------|
D|--------------3-3-3-3-3-3-3-6--------1-1-1-1----|
A|1-1-1-1-----------------------1-1-1-1-----------|
E|-------4-4-4-4-------------------------------1r-|


Last chorus  [2:29 - 2:48]
G|-----------------------------------|
D|--------------3-3-3-3--3-3--6-6----|
A|1-1-1-1----------------------------|  Play 4 times 
E|-------4-4-4-4---------------------|

Outro (You gotta slide with 2 strings at the end)
[2:48 - End]
G|---------------------------------------------------------15/3--------|
D|---------------------------------------------------------------------|
A|-1r--------1-1-1-1m-1r------1-1-1-1m-1r----1-1-1-1m-1/13-13/1--------|
E|---------------------------------------------------------------------|

Thats it... even if it is a slightly garbled version of 'it'. 
-Twig-

| /  slide up
| \  slide down
| h  hammer-on
| p  pull-off
| r  let note ring
| +  harmonic
| x  Mute note
===============================================================================
Comments