Anti Flag - Not Gonna Change Chords & Tabs

 

Not Gonna Change Chords & Tabs

Anti Flag Chords & Tabs

Version: 2 Type: Bass Tab 0 ratings
1 star 2 stars 3 stars 4 stars 5 stars
comments

Not Gonna Change Bass Tab

   
Anti-Flag
Not Gonna Change
Tabbed by: intense@westol.com

this is tabbed in normal antiflag tuning (half step down). if you're
regular tuning, just play everything one fret lower than what it says
on this tab

intro/verse:
Gb-----------------------------------------------------------------
Db-----------------------------------------------------------------
Ab-----7-7-----7-7-----7-7-----7-7-----5-5-----5-5-----9-9-----9-9-
Eb-7-7-----7-7-----7-7-----7-7-----5-5-----5-5-----9-9-----9-9-----
[ Tab from: http://www.guitartabs.cc/tabs/a/anti_flag/not_gonna_change_btab_ver_2.html ]
Chorus:
Gb-------------------------------------------------
Db-------------------------------------------------
Ab-------------7-7-7-7-7-7-------------9-9-9-9-9-9-
Eb-7-7-7-7-7-7-------------5-5-5-5-5-5-------------

3rd line of Chorus with the scales:
Gb---------------------------------------------
Db-------------9-----9-9-----------------------
Ab---9-7-5-7-7---7-7-------7-5-7-9-9-7-5-5-7-7-
Eb-7---------------------5---------------------


After chorus?:
Gb-------------------------
Db-------------------------
Ab-------------------------
Eb-5-7-7-7-5-7-7-7-5-7-5-7-

Line right before 2nd verse starts:
Gb------------------------------------------------------
Db---------------------------------------7---------11---
Ab-----7-7-----7-7-----7-7-----7-7---5-5---5---9-9----9-
Eb-7-7-----7-7-----7-7-----7-7-----5---------9----------

Ends on A#

Comments