Anti-flag - No Blood Thirsty Corporatons Chords & Tabs

 

No Blood Thirsty Corporatons Chords & Tabs

Anti-flag Chords & Tabs

Version: 1 Type: Tab 0 ratings
1 star 2 stars 3 stars 4 stars 5 stars
comments

No Blood Thirsty Corporatons Tab

NO BLOODY THIRSTY CORPORATIONS

THIS WAS A BITCH BECAUSE I HAD TO SIT DOWN AND LISTEN TO THE SONG FOR A COUPLE HOURS
FIGURING IT OUT AND NOW IM SICK OF THE SONG BUT HERE IT IS

INTRO \ VERSE GTR.1
|----|-----------------------------------------------------|
|----|-----------------------------------------------------|
|----|-----------------------------------------------------|
|--5-|--5-5-5-5-5-5-5-5----888-666-777-555-4333333333-PS---|
|--3-|---------------------888-666-777-555-4333333333-PS---|
|--3-|---------------------666-444-555-333-2111111111-PS---|
      |H E R M O N I C S|                                         
|--------------------------------------------------------^--|
|--------------------------------------------------------9--|
|-----------------------------------------------------------|
|--5-5-5-5-5-5-5-5--------888-666-777-555-4-333333333-------|
|-------------------------888-666-777-555-4-333333333-------|
|-------------------------666-444-555-333-2-111111111-------|
 |H E R M O N I C S|
INTRO \ VERSE GTR.2
|----|--------------------------------------------------------------|
|----|--------------------------------------------------------------|
|----|--------------------------------------------------------------|
|--5-|--55555555-5-5-5-5-5-5-5-5--888-666-777-555-4-333333333--2X---|
|--5-|--55555555-5-5-5-5-5-5-5-5--888-666-777-555-4-333333333-------|
|--3-|--55555555-5-5-5-5-5-5-5-5--666-444-555-333-2-111111111-------|
       |PALMMUTE|
CHORUS BOTH GTRS.
|-------------------------------------------------------------------|
|-------------------------------------------------------------------|
|------------------------------------------------7-7/-7-5-----------|
|--55555555-33333333--6/8-8/9-9/11--9\7-7\6-6\4-------------2X------|
|--55555555-33333333-----------------------------5-5/-5-3-----------|
|--33333333-11111111--4/6-6/7-7/9---7\5-5\4-4\2---------------------|
[ Tab from: http://www.guitartabs.cc/tabs/a/anti_flag/no_blood_thirsty_corporatons_tab.html ]
BRIDGE GTR.1
|------------------------------------------------------11-11-----11-11------|
|-----------------------------------------------------------11-11-----11-11-|
|-----------------6-------------------6---------8-8-8-8---------------------|
|--555555--555555------555555--555555----555-555----------------------------|
|--555555--555555------555555--555555----555-555-------|    PALM  MUTE    |-|
|--333333--333333------333333--333333----333-333----------------------------|
                                        LET^ LA^ST 2 RING
CONTINUATION
|---------------------------------------------------------------------------|
|---------------------------------------------------------------------------|
|---------------------------------------------------7-7/-7-5555-7-7/-7-5555-|
|--88-55-77-44-88-55-66-44-88-55-77-44-6/8-8/9-9/11-------------------------|
|--88-55-77-44-88-55-66-44-88-55-77-44-6/8-8/9-9/11-5-5/-5-3333-5-5/-5-3333-|
|--66-33-55-22-66-33-44-22-66-33-55-22-4/6-6/7-7/9--------------------------|

BRIDGE GTR. 2
|---------------------------------------------------------------------------|
|---------------------------------------------------------------------------|
|--------------------6----------------------------8-8-8-8-------------------|
|--555555--555555------555555--555555----555-555--6-6-6-6-------------------|
|--555555--555555------555555--555555----555-555----------------------------|
|--333333--333333------333333--333333----333-333----------------------------|
                                       
CONTINUATION
|---------------------------------------------------------------------------|
|---------------------------------------------------------------------------|
|---------------------------------------------------7-7/-7-5555-7-7/-7-5555-|
|--88-55-77-44-88-55-66-44-88-55-77-88-55-66-44-----------------------------|
|--88-55-77-44-88-55-66-44-88-55-77-88-55-66-44-----5-5/-5-3333-5-5/-5-3333-|
|--66-33-55-22-66-33-44-22-66-33-55-22-66-33-44-----------------------------|

OUTRO GTR.1
|--7-7-7-7-7-7-7-7-7-7-7-7-7-7-7-7-7-7-7-7-7-7-8-7-4-7-7-8-7-4-7-7-7\-------|
|---------------------------------------------------------------------------|
|---------------------------------------------------------------------------|
|---------------------------------------------------------------------------|
|---------------------------------------------------------------------------|
|---------------------------------------------------------------------------|
OUTRO FOR GTR.2 IS THE THE SAME THING AS THE CHORUS


PS=PICK SLIDE OR PICK SCRAPE WICH EVER YOU PROFFER
^=BEND OR SOMETIMES ARROWS....   IT ITS LIKE THIS-^- ITS A BEND
\=SLIDE FINGERS DOWN THE NECK
/=SLIDE FINGERS UP THE NECK

[VERSE]
I herd a man on the radio saying, "we're facing an economic hell"
It creates a vision in my head of ten thousand kids sent off to kill
Theres always a voice that says, "you've got a choice"
But a choice between shit is still shit!!

[Chorus]
Resistance, Resistance
I won't be used
By a fascist corporation, a rightwing politician,
I'm not a slave, not a tool, fuck you!

[VERSE}
I've got an idea in my head and I know it is nothing new
But it seems to me a better plan than being used, and being screwed
Think your safe to spread your hate from behind your iron gate's
Your walls will never be strong enough to keep us down

[Chorus]

[Bridge]
Sometimes there is not a choice, like when your backs against the wall
So it's better to make a move, before they've set you up to fall
SO YOU... so you better organize
SO YOU... so you better open eyes
SO YOU... so you better sound out loud the call
Before you find your back is up against the wall
THEIR fucking wall
Comments