Anti Flag - No Apology Chords & Tabs

 

No Apology Chords & Tabs

Anti Flag Chords & Tabs

Version: 1 Type: Tab 0 ratings
1 star 2 stars 3 stars 4 stars 5 stars
comments

No Apology Tab

   
Artist: Anti-Flag
Song: No Apology
Album: A New Kind Of Army

This is 100% correct

Intro:

 C#5 A5   E5     C#5 A5 E5   B5
e-------------------------------------|
B-------------------------------------|
G--6---9-9-9-9-9--6---9-9-9-----------|
D--6-7-9-9-9-9-9--6-7-9-9-9-9-9-------|
A--4-7-7-7-7-7-7--4-7-7-7-7-9-9-------|
E----5--------------5-------7-7-------|

 C#5 A5  E5      C#5 A5 E5
e-------------------------------------|
B-------------------------------------|
G--6---9-9-9-9-9--6----9--------------|
D--6-7-9-9-9-9-9--4-7--9--------------|
A--4-7-7-7-7-7-7--4-7--7--------------|
E----5--------------5-----------------|

Then:

     C#5
e------------------------------------|
B------------------------------------|
G---6-6------------------------------| Repeat 4 times
D---6-6----xxxxxx--------------------|
A---4-4----xxxxxx--------------------|
E----------xxxxxx--------------------|

Verse:

e-------------------------------------|
B-------------------------------------|
G-------------------------------------|
D---------7-7--6-6--------------------| x 2
A----4-4-----------7-7----------------|
E-------------------------------------|

Then:

   E5       B5     C#5 
e-------------------------------------|
B-------------------------------------|
G-9-9-9-9----------6-6----------------|
D-9-9-9-9-9-9-9-9--4-4-xxxxxx---------| Do the C#5 thing 4x
A-7-7-7-7-9-9-9-9--4-4-xxxxxx---------| like in the intro
E---------7-7-7-7------xxxxxx---------|
[ Tab from: http://www.guitartabs.cc/tabs/a/anti_flag/no_apology_tab.html ]
Then do the verse again (44 77 66 77)

Then:
   E5         B5          C#5
e-----------------------------------------|
B-----------------------------------------|
G-9-9-9-9-------------6-6-6-6-6-6-6-6-6-6-|
D-9-9-9-9--9-9-9-9----6-6-6-6-6-6-6-6-6-6-|
A-7-7-7-7--9-9-9-9----4-4-4-4-4-4-4-4-4-4-|
E----------7-7-7-7------------------------|

Chorus:

    E5               B5
e------------------------------|
B------------------------------|
G-9-9-9-9-9--------------------|
D-9-9-9-9-9------9-9-9-9-9-----| Repeat 3x
A-7-7-7-7-7------9-9-9-9-9-----|
E----------------7-7-7-7-7-----|

Then repeat the whole song from beginning to end

After that play the intro. Then there is a bridge

Bridge:

	B5                 C#5                      A5
e--------------------------------------------------------------|
B--------------------------------------------------------------|
G----------------------6-6-6-6-6-6-6-6-6-6---------------------|
D-9-9-9-9-9-9-9-9-9-9--6-6-6-6-6-6-6-6-6-6--7-7-7-7-7-7-7-7-7-7|
A-9-9-9-9-9-9-9-9-9-9--4-4-4-4-4-4-4-4-4-4--7-7-7-7-7-7-7-7-7-7|
E-7-7-7-7-7-7-7-7-7-7-----------------------5-5-5-5-5-5-5-5-5-5|

       Ab5                    E5
e--------------------------------------------------|
B--------------------------------------------------|
G--------------------------9-9-9-9-9---------------|I'm not sure how
D-6-6-6-6-6----------------9-9-9-9-9---------------|many times you repeat 
A-6-6-6-6-6----------------7-7-7-7-7---------------|       it
E-4-4-4-4-4----------------------------------------|

Thats all to it.        
Comments