Anti-flag - Mumias Song Chords & Tabs

 

Mumias Song Chords & Tabs

Anti-flag Chords & Tabs

Version: 2 Type: Tab

Mumias Song Tab

   
-----------------------------------------------------------------------------
			     MUMIA'S SONG - Anti-Flag
-----------------------------------------------------------------------------

Great song/solo by Anti-Flag. The other version didn't sound right on my guitar,
but this one does, it's also a lot easier to play (in my opinion). Well, without
further ado here it is:

Tuning: Standard (E-A-D-g-b-e)
[ Tab from: http://www.guitartabs.cc/tabs/a/anti_flag/mumias_song_tab_ver_2.html ]
e|---------------------------------------------|
B|--6^-6^-6^-6^-6^-6^-6^-6^-6^-6^-6^-4-2~~~----|
G|---------------------------------------------|
D|---------------------------------------------|
A|---------------------------------------------|
E|---------------------------------------------|
                              
e|-4--2--1----------2--1---------1--4-----|
B|----------4--2----------4~~-------------|
G|----------------------------------------|
D|----------------------------------------|
A|----------------------------------------|
E|----------------------------------------|

e|--6p9-----6p9-----6p9-----6p9-------|--9--11-11---9-8--|
B|------6p9-----6p9-----6p9-----6p9---|------------------|
G|------------------------------------|------------------|
D|------------------------------------|------------------|
A|------------------------------------|------------------|
E|------------------------------------|------------------|

e|--6-6-6-6-6-6-6-6-6-6-6-6-6-6-6-6------|
B|--6-6-6-6-6-6-6-6-6-6-6-6-6-6-6-6------|
G|---------------------------------------|
D|---------------------------------------|
A|---------------------------------------|
E|---------------------------------------|

e|------------6------------------|
B|----6-----------6--------------|
G|--------6-----------6----------|
D|------------------------8------|
A|-------------------------------|
E|-------------------------------|