Anti Flag - Im Gonna See Ya Chords & Tabs

 

Im Gonna See Ya Chords & Tabs

Anti Flag Chords & Tabs

Version: 1 Type: Tab 0 ratings
1 star 2 stars 3 stars 4 stars 5 stars
comments

Im Gonna See Ya Tab

   
Here's a rare but easy song from Anti Flag. Great!

. =palm mute note
< =let ring 

Intro:

e----------------------------------------|
b----------------------------------------|
g------------------4-4-4-4---------------| 
d--6-6-6-6-2-2-2-2-4-4-4-4-6-6-6-6-------| 2x
a--6-6-6-6-2-2-2-2-2-2-2-2-6-6-6-6-------|
E--4-4-4-4-0-0-0-0---------4-4-4-4-------|
   . . . . . . . . . . . . . . . .

Verse
 
e----------------------------------------|
b----------------------------------------|
g------------------4-4-4-4---------------| 
d--6-6-6-6-2-2-2-2-4-4-4-4-6-6-6-6-------| 2x
a--6-6-6-6-2-2-2-2-2-2-2-2-6-6-6-6-------|
E--4-4-4-4-0-0-0-0---------4-4-4-4-------|
  
e----------------------------------------|
b----------------------------------------|
g------------------4-4-4-4---------------| 
d--6-6-6-6-2-2-2-2-4-4-4-4--6-6-6-6------| 
a--6-6-6-6-2-2-2-2-2-2-2-2--6-6-6-6------|
E--4-4-4-4-0-0-0-0----------4-4-4-4------|
   . .     . .     . .      . .

e----------------------------------------|
b----------------------------------------|
g------------------4-4-4-4---------------| 
d--6-6-6-6-2-2-2-2-4-4-4-4-6-6-6-6-------|
a--6-6-6-6-2-2-2-2-2-2-2-2-6-6-6-6-------|
E--4-4-4-4-0-0-0-0---------4-4-4-4-------|

e----------------------------------------|
b----------------------------------------|
g------------------4-4-4-4---------------| 
d--6-6-6-6-2-2-2-2-4-4-4-4--6-6-6-6------| 
a--6-6-6-6-2-2-2-2-2-2-2-2--6-6-6-6------|
E--4-4-4-4-0-0-0-0----------4-4-4-4------|
   . .     . .     . .      . .
[ Tab from: http://www.guitartabs.cc/tabs/a/anti_flag/im_gonna_see_ya_tab.html ]
e----------------------------------------|
b----------------------------------------|
g------------------4-4-4-4---------------| 
d--6-6-6-6-2-2-2-2-4-4-4-4-6-6-6-6-------|
a--6-6-6-6-2-2-2-2-2-2-2-2-6-6-6-6-------|
E--4-4-4-4-0-0-0-0---------4-4-4-4-------|


Pre Chorus

e--------------------------------------------------------------|
b--------------------------------------------------------------|
g-6-6-6-6-6-6-6-6-4-4-4-4-4-4-4-4-6-6-6-6-6-6-6-6-8-8-8-8-8----| 
d-6-6-6-6-6-6-6-6-4-4-4-4-4-4-4-4-6-6-6-6-6-6-6-6-8-8-8-8-8----|
a-4-4-4-4-4-4-4-4-2-2-2-2-2-2-2-2-4-4-4-4-4-4-4-4-6-6-6-6-6----|
E--------------------------------------------------------------|

Chorus

e----------------------------------------|
b----------------------------------------|
g------------------4-4-4-4---------------| 
d--6-6-6-6-2-2-2-2-4-4-4-4-6-6-6-6-------| 2x
a--6-6-6-6-2-2-2-2-2-2-2-2-6-6-6-6-------|
E--4-4-4-4-0-0-0-0---------4-4-4-4-------|


Verse

Pre chorus

Chorus (x2)


Interlude

e-----------------------------------------------------------------------|
b-----------------------------------------------------------------------|
g-6-6-6-6-6-6-6-6-6-6-6-6-6-6-6-6-5->-----------------------------------| 
d-x-x-x-x-x-x-x-x-x-x-x-x-x-x-x-x-5->----(pickslide at the second time)-|  2x
a-4-4-4-4-4-4-4-4-4-4-4-4-4-4-4-4-3->-----------------------------------|
E-----------------------------------------------------------------------|


e-----------------------------------------------------------------|
b-----------------------------------------------------------------|
g-7-7-7-7-7-7-7-7-7-7-7-7-7-7-7-7-6->-----------------------------| 
d-x-x-x-x-x-x-x-x-x-x-x-x-x-x-x-x-6->----(pickslide in both)------|  2x
a-5-5-5-5-5-5-5-5-5-5-5-5-5-5-5-5-4->-----------------------------|
E-----------------------------------------------------------------|

Chorus(4 times)

Finish with

d-6-|  
a-6-|
E-4-|
Comments