Anti Flag - Drink Drank Punk Chords & Tabs

 

Drink Drank Punk Chords & Tabs

Anti Flag Chords & Tabs

Version: 1 Type: Bass Tab 0 ratings
1 star 2 stars 3 stars 4 stars 5 stars
comments

Drink Drank Punk Bass Tab

SONG:  DRINK, DRANK, PUNK
BAND:  ANTI-FLAG
TABBED BY:  DAN HAVOC, BASSIST FOR THE NEUTRALS

INTRO:

G-------------------------------------------------------------------------------|
D-----------------3-4-5-------------------------------------------3-4-5---------| ( x2) 
A--------------4-------------------------4-3-2-1---------------4--------------4-|
E-4-4-4-4-4--------------4-4-4-4-4---------------4-4-4-4-4---------4-4-4-4-4----|
[ Tab from: http://www.guitartabs.cc/tabs/a/anti_flag/drink_drank_punk_btab.html ]
VERSE:
G--------------R--------------R--------------R---------------R
D--------------E--------------E--------------E---------------E
A-----------4--S------------4-S------------4-S------------4--S
E-4-4-4-4-4----T-4-4-4-4-4----T-4-4-4-4-4----T-4-4-4-4-4-----T

CHORUS:         ( x3)                     ( x1)
G--------------------------|     G--------------|
D------------------3-4-5---|     D--------------|
A---------------4----------|     A------------4-|
E-4-4-4-4-4----------------|     E-4-4-4-4-4----|

BRIDGES:
G-------------------------------------------|
D-------------------------------------------|
A-2-2-2-2-2---4-4-4-4-4-6-6-6-6-6-6-6-6-6-6-|
E-------------------------------------------|

THATS IT!
Comments