Anti Flag - Die For Your Government Chords & Tabs

 

Die For Your Government Chords & Tabs

Anti Flag Chords & Tabs

Version: 3 Type: Bass Tab 0 ratings
1 star 2 stars 3 stars 4 stars 5 stars
comments

Die For Your Government Bass Tab

----------------------------------------------------------------------------                
Die For Your Government - Anti-Flag
----------------------------------------------------------------------------

I had to make a tab for this song sorry to say but the other tabs are way off.

Tabbed By :josh 
e-mail: scrubster2002@yahoo.com 

Tuning: standard EADG

Chorus
G|-------------------------------------------------------------------------|
D|-------------------------------------------------------------------------|
A|-444-------------------444-----77----22--444------------------444-----7--|
E|-----555--000--2222--------555---------------555--000--2222-------555----|
[ Tab from: http://www.guitartabs.cc/tabs/a/anti_flag/die_for_your_government_btab_ver_3.html ]
Verse
G|---------------------|
D|---------------------|
A|--44764476-----------|
E|-----------22542222--|

Bridge
G|-------------------------------------------------------------------------|
D|-------------------------------------------------------------------------|
A|--44444444-------44444444-----77--44444444--------44444444---------------|
E|---------55555555--------5555-------------55555555--------5--------------|

G|--------------------------------|
D|---11--9-------11--9------11--9-|
A|--------------------------------|
E|--------------------------------|

Here's the order you play the song the song:
Chorus
Verse x12
Chorus
Verse x12
Chorus
Bridge
Chorus(play as long as u feel like)

Well theres's the tab for ya. Email me if u got any questions or comments. Please rate!
Comments