Anti-flag - Death Of A Nation Chords & Tabs

 

Death Of A Nation Chords & Tabs

Anti-flag Chords & Tabs

Version: 2 Type: Tab

Death Of A Nation Tab

Normal tuning


"was a little motivation"
|--------------------------------------------------------------|
|--------6-6-6-6-----------------------------------------------|
|--------6-6-6-6-----------------------------------------------|
|3-3-3-3-4-4-4-4-6-6-6-6-5-5-5-5-8-8-8-8-8-8-8-8--2~~----------|
|3-3-3-3---------6-6-6-6-5-5-5-5-8-8-8-8-6-6-6-6--2~~----------|
|1-1-3-1---------4-4-4-4-3-3-3-3-6-6-6-6-6-6-6-6--0~~----------|
                               

thers a tiny riff right here
|-------|
|----2--|
|--1----|
|3------|
|-------|
|-------|





|--------------------------------------------------------------|
|--------6-6-6-6-----------------------------------------------|
|--------6-6-6-6-----------------------------------------------|
|3-3-3-3-4-4-4-4-6-6-6-6-5-5-5-5-8-8-8-8-8-8-8-8--2~~----------|X2
|3-3-3-3---------6-6-6-6-5-5-5-5-8-8-8-8-6-6-6-6--2~~----------|
|1-1-3-1---------4-4-4-4-3-3-3-3-6-6-6-6-6-6-6-6--0~~----------|
                                 ^ on the third time play till here then it 
goes like this 

|------------------------------------------------------------------|
|------------------------------------------------------------------|
|------------------------------------------------------------------|
|-8-8-8-8-8-8-8-8-8-8-8-8-8-8-8-8-8-8-6-6-6-6-6-6-6-6-6-6-6-6-6-6--|
|-8-8-8-8-8-8-8-8-8-8-8-8-8-8-8-8-8-8-6-6-6-6-6-6-6-6-6-6-6-6-6-6--|
|-6-6-6-6-6-6-6-6-6-6-6-6-6-6-6-6-6-6-4-4-4-4-4-4-4-4-4-4-4-4-4-4--|




Chorus
[ Tab from: http://www.guitartabs.cc/tabs/a/anti_flag/death_of_a_nation_tab_ver_2.html ]
"say your prayers"
|----------------------------------------------------------------------|
|----------------------------------------------------------------------|
|------------6----6---------------6----6---------------6---6----3~--6~-|
|-3-3-3-2-3--6-6--6-6--3-3-3-2-3--6-6--6-6--3-3-3-2-3--6-6-6-6--3~--6~-|
|-3-3-3-2-3--4-6--4-6--3-3-3-2-3--4-6--4-6--3-3-3-2-2--4-6-4-6--1~--4~-|
|-1-1-1-0-1----4----4--1-1-1-0-1----4----4--1-1-1-0-1----4---4---------|


Guitar 2
|-----------------|
|-----------------|
|-----------------|
|3~~~-------------|
|3~~~-------------|
|1~~~-------------|

Guitar 1
|--1-------1--|
|----1---1----|
|------3------|
|-------------|
|-------------|
|-------------|


then go back to the top, and play the chorus twice. After that it comes to this



"agresiveness is godliness"

Guitar 2

|------------|
|------------|
|------------|
|3-3---3-3---| 
|3-3---3-3---|
|1-1---1-1---|
P.M

Do this and keep playing while guitar 1 comes in and does this

|-----------------|
|---9----9--------|
|---9----9--------|
|---7----7--------|
|-----------------|
|-----------------|


Then guitar 1 plays a tiny solo while guitar 2 is still palm muting


(thats one, one, not eleven
|11---------11------------|
|---11---11----11---------|
|------33---------33-11---|
|-------------------------|
|-------------------------|
|-------------------------|


Outro

Guitar 2

|----------------------------------------------|
|----------------------------------------------|
|--------6-6-6-6-------------------------------|
|3-3-3-3-6-6-6-6-6-6-6-6-5-5-5-5-8-8-8-8-8-8-8-|
|3-3-3-3-4-4-4-4-6-6-6-6-5-5-5-5-6-6-6-6-6-6-6-|
|1-1-1-1---------4-4-4-4-3-3-3-3-6-6-6-6-6-6-6-|


Guitar 1

|------2~~~|
|----3-----|
|--2-------|
|----------|
|----------|
|----------|

If you fnid any problems aol instant message me at llanafreak44